Oops, an error
Loading. Please wait.

Ghost Story tab

version 2
version 2

Whole song

547 views 3 this week
1 commentread comment
1 2 3 4 5
x 3
add to favorites
×
Save as Personal and add changes to this tab that will be seen only by you. Learn more ›
×
You can save this tab as Personal to edit and correct it or add notes. All changes will be seen only by you. Learn more »
launch autoscroll
font size
0
reset
how to read this tab
guitar tuner
edit
Autoscroll
slow
fast
+/-
esc
set tempo
stop
Author
-------------------------------------------------------------------------------
                             Ghost Story - Coldplay
-------------------------------------------------------------------------------
That is prety much all acoustic part of the song but in standart tuning. Enjoy!
Main riff is in intervals and I don't really know how to name it. So please correct me if I'm wrong.
Tabbed by:Rick_Pro_za
Arranged by:  Some hail to Sheryar Malik!
Tuning: EADGBe
Chords:
D5      x57xxx
Dsus4   x55xxx
C(om5)  x32xxx
G(om5)  32xxxx
Bm(Om5) xx04xx

Asus2   557700
Cma7    335500
Em7     055400


(Intro)
   D5      Dsus4 D5  Dsus4         C(om5)        G(om5) Bm(Om5)
e|---------------------------------------------------------------------------|
B|---------------------------------------------------------------------------|
G|---------------------------------------------------4-4-4-4-2-2-2-----------|
D|-7---7---4-5---7---5-5-4-5-4-5-4-2---2---2-2-2-----0-0-0-0-0-0-0-----------|
A|-5---5---5-5---5---5-5-5-5-5-5-5-3---3---3-3-3-2---------------------------|
E|-----------------------------------------------3---------------------------|

[First verse]
                                                         Maybe I'm just a 
e|---------------------------------------------------------------------------|
B|---------------------------------------------------------------------------|
G|---------------------------------------------------4-4-4-4-2-2-2-----------|
D|-7---7---4-5---7---5-5-4-5-4-5-4-2---2---2-2-2-----0-0-0-0-0-0-0-----------|
A|-5---5---5-5---5---5-5-5-5-5-5-5-3---3---3-3-3-2---------------------------|
E|-----------------------------------------------3---------------------------|
   ghost.              Disappear when anybody's close.   Go through you when you 
e|---------------------------------------------------------------------------|
B|---------------------------------------------------------------------------|
G|---------------------------------------------------------------------------|
D|-7---7---4-5---7---5-5-4-5-4-5-4-2---2---2-2-2-----------------------------|
A|-5---5---5-5---5---5-5-5-5-5-5-5-3---3---3-3-3-2---2-2-2-2-2-2-2-----------|
E|-----------------------------------------------3---3-3-3-3-3-3-3-----------|
   try to hold             Try to hold me near           Maybe I'm just a... 
e|---------------------------------------------------------------------------|
B|---------------------------------------------------------------------------|
G|---------------------------------------------------------------------------|
D|-7---7---4-5---7---5-5-4-5-4-5-4-7---7---4-5---7---5-5-4-5-4-5-4-----------|
A|-5---5---5-5---5---5-5-5-5-5-5-5-5---5---5-5---5---5-5-5-5-5-5-5-----------|
E|---------------------------------------------------------------------------|

   ghost.              Emptier than anybody knows.       Maybe I'm on the
e|---------------------------------------------------------------------------|
B|---------------------------------------------------------------------------|
G|---------------------------------------------------------------------------|
D|-7---7---4-5---7---5-5-4-5-4-5-4-2---2---2-2-2-----------------------------|
A|-5---5---5-5---5---5-5-5-5-5-5-5-3---3---3-3-3-2---2-2-2-2-2-2-2-----------|
E|-----------------------------------------------3---3-3-3-3-3-3-3-----------|
   ropes                 Or I'm not even here                  Yeah!
e|-----------------------------------------------------0-0-0-0-0-------------|
B|-----------------------------------------------------0-0-0-0-0-------------|
G|-----------------------------------------------------5-5-5-5-5-------------|
D|-7---7---4-5---7---5-5-4-5-4-5-4---7---7---4-5---7---5-5-5-5-5-------------|
A|-5---5---5-5---5---5-5-5-5-5-5-5---5---5---5-5---5---3-3-3-3-3-------------|
E|-----------------------------------------------------3-3-3-3-3-------------|

(Chorus)

The rythm is: 
   Asus2                           Cma7          Em7 
                       Every...    walk through walls    More walls appear
e|-0---0-----0---0---0-0---0---0---0---0-----0---0---0-0-0-0-0-0-------------|
B|-0---0-----0---0---0-0---0---0---0---0-----0---0---0-0-0-0-0-0-------------|
G|-7---7-----7---7---7-7---7---7---5---5-----5---4---4-4-4-4-4-4-------------|
D|-7---7-----7---7---7-7---7---7---5---5-----5---5---5-5-5-5-5-5-------------|
A|-5---5-----5---5---5-5---5---5---3---3-----3---5---5-5-5-5-5-5-------------|
E|-5---5-----5---5---5-5---5---5---3---3-----3---0---0-0-0-0-0-0-------------|


Asus2                Cma7         
 Every time I try to walk through walls
Em7                Asus2
 More walls appear
                             Cma7 
 What's the point of feeling love for you
Em7                         Asus2
 When you don't believe I'm here?
                               Cma7
 What's the point of trying to raise your voice
Em7             Asus2 
 If no one ever hears?
                     Cma7
 Every time I try to pull you close
Em7 
 You disappear


D5 Dsus4 D5 Dsus4 C(om5) G(om5) Bm(Om5)          (same as intro and first verse)

(Second verse)
 Maybe I'm a ghost
 Just a whisper in a puff of smoke
 A secret that nobody knows
 No one will ever hear
 
  Or maybe I'm a ghost
 A specter on a roller coaster
A thorn without a rose
 Just something people fear

(Chorus)

Cma7    Asus2
 Yeah!
                            Cma7
 And every time I thought I walk through walls
Em7              Asus2
 It's all become clear
                             Cma7
 What's the point of feeling love for you
Em7                         Asus2
 When you don't believe I'm here?
                          Cma7
 What's the point saying "Rescue me!"
Em7             Asus2
 If no one ever hears?
                     Cma7
 Every time I try to pull you close
Em7            Asus2
 You disappear
                     Cma7
 Every time I try to pull you close
Em7            Asus2
 You disappear
 
D5 Dsus4 D5 Dsus4 C(om5) G(om5) Bm(Om5) x4                (Same as intro)
                         O--o-o-oh

Cma7    Asus2    Cma7    Em7    Asus2    Cma7    Em7      (same as chorus)

Asus2                       Cma7
 And every time I thought I walk through walls
Em7              Asus2 
 It's all become clear
                     Cma7
 Every time I try to pull you close
Em7             Asus2 
 You disappear
                     Cma7
 Every time I try to pull you close
Em7
 You disappe...
  


************************************

| /   slide up
| \   slide down
| h   hammer-on
| p   pull-off
| ~   vibrato
| +   harmonic
| x   Mute note


************************************


            
            
Suggest correction
Creating personal tab
Creating personal tab
You can edit any tab online and save it as your Personal.

You can edit, replace or remove any tab part or add personal notes – all changes will be seen only by you.

Personal tabs can be accessed anytime from any device, even offline.
Learn more »
Give kudos to tab author, rate the tab!
1 2 3 4 5
comments
print report bad tab
1 comment total.
0 reply
benmkana 10 Aug 28, 2016 02:32 PM, edited on August 29 2016, 03:10 pm

Very Very Good.
Seriously Fantastic with the power chords in the verse and the e and b strings in the chorus.

guest
You may want to rate the tab now too:
select rating
Wanna post a correction for this tab? Suggest correction