Oops, an error
Loading. Please wait.

Glass Of Water tab

version 1
version 1

Whole song

  • Please read the whole tab to understand completly ... Show more

Interactive

337 views 12 this week
2 commentsread comments
1 2 3 4 5
2 more votes to show rating
add to favorites
×
Save as Personal and add changes to this tab that will be seen only by you. Learn more ›
×
You can save this tab as Personal to edit and correct it or add notes. All changes will be seen only by you. Learn more »
launch autoscroll
font size
0
reset
how to read this tab
guitar tuner
edit
Autoscroll
slow
fast
+/-
esc
set tempo
stop
About this tab version
Please read the whole tab to understand completly how play this song in the right way. Was this info helpful? Yes No
-------------------------------------------------------------------------------
                    Glass Of Water - Coldplay
-------------------------------------------------------------------------------
Tabbed by: Fernando ANG
E-mail: fercho21083@gmail.com

Tuning: Standar 


e|--------------------------------------9---9--------------------------------|
B|---10------10--10--10--(10)--10--10--10--10--------------------------------|
G|--11b12----11--11--11--(11)---9---9----------------------------------------|  X8
D|---------------------------------------------------------------------------|
A|---------------------------------------------------------------------------|
E|---------------------------------------------------------------------------|
                                                                  
e|---------------------------------------------------------------------------|
B|----8--8--8--8--8-8-(8)-8--8-8/10--10---10---10---10---10------------------|
G|----7--7--7--7--7-7-(7)-7--7-7/9----9----9----9----9----9------------------|
D|---------------------------------------------------------------------------|
A|---------------------------------------------------------------------------|
E|---------------------------------------------------------------------------|

[Chorus]

e|---x--x--x-x-x-x---x--x--x-----x--x---x-x-x-x----x--x--x-------------------|
B|---x--x--x-x-x-x---x--x--x-----x--x---x-x-x-x----x--x--x-------------------|
G|---x--x--x-x-x-x---x--x--x-----x--x---x-x-x-x----x--x--x-------------------|
D|---0--0--0-0-0-0---4--4--4-----9--9---9-9-9-9----12-12-12------------------|
A|---0--0--0-0-0-0---4--4--4-----9--9---9-9-9-9----12-12-12------------------|
E|---x--x--x-x-x-x---x--x--x-----x--x---x-x-x-x----x--x--x-------------------|
                                                                                X3

e|---x--x--x-x-x-x---x--x--x-----x--x---x-x-x-x----x--x--x-------------------|
B|---x--x--x-x-x-x---x--x--x-----x--x---x-x-x-x----x--x--x-------------------|
G|---x--x--x-x-x-x---x--x--x-----x--x---x-x-x-x----x--x--x-------------------|
D|---0--0--0-0-0-0---4--4--4-----9--9---9-9-9-9----5--5--5-------------------|
A|---0--0--0-0-0-0---4--4--4-----9--9---9-9-9-9----5--5--5-------------------|
E|---x--x--x-x-x-x---x--x--x-----x--x---x-x-x-x----x--x--x-------------------| 

[End of the Chorus]     

e|---x--x--x-x-x-x---x--x--x-----x--x---x-x-x-x----x--x--x-------------------|
B|---x--x--x-x-x-x---x--x--x-----x--x---x-x-x-x----x--x--x-------------------|
G|---x--x--x-x-x-x---x--x--x-----x--x---x-x-x-x----x--x--x-------------------|
D|---0--0--0-0-0-0---4--4--4-----9--9---9-9-9-9----12-12-12------------------|
A|---0--0--0-0-0-0---4--4--4-----9--9---9-9-9-9----12-12-12------------------|
E|---x--x--x-x-x-x---x--x--x-----x--x---x-x-x-x----x--x--x-------------------|


e|---x---x---x--x--x--x------x---x---x----x--x---x--x--x--x----x---x---x-----|
B|---x---x---x--x--x--x------x---x---x----x--x---x--x--x--x----x---x---x-----|
G|---x---x---x--x--x--x------x---x---x----x--x---x--x--x--x----x---x---x-----|
D|---5---5---5--5--5--5------14--14--14---5--5---5--5--5--5----14--14--14----|
A|---5---5---5--5--5--5------14--14--14---5--5---5--5--5--5----14--14--14----|
E|---x---x---x--x--x--x------x---x---x----x--x---x--x--x--x----x---x---x-----|

IN THE PIANO'S SOLO JONNY BUCKLAND PLAY THAT:
e|---------------------------------------------------------------------------|
B|---(3)---------------------------------------------------------------------|
G|---(2)---------------------------------------------------------------------| X4
D|---------------------------------------------------------------------------|
A|---------------------------------------------------------------------------|
E|---------------------------------------------------------------------------|

[Final Chorus] 


e|---x--x--x-x-x-x---x--x--x-----x--x---x-x-x-x----x--x--x-------------------|
B|---x--x--x-x-x-x---x--x--x-----x--x---x-x-x-x----x--x--x-------------------|
G|---x--x--x-x-x-x---x--x--x-----x--x---x-x-x-x----x--x--x-------------------|
D|---0--0--0-0-0-0---4--4--4-----9--9---9-9-9-9----12-12-12------------------|
A|---0--0--0-0-0-0---4--4--4-----9--9---9-9-9-9----12-12-12------------------|
E|---x--x--x-x-x-x---x--x--x-----x--x---x-x-x-x----x--x--x-------------------|

e|---x--x--x-x-x-x---x--x--x-----x--x---x-x-x-x----x--x--x-------------------|
B|---x--x--x-x-x-x---x--x--x-----x--x---x-x-x-x----x--x--x-------------------|
G|---x--x--x-x-x-x---x--x--x-----x--x---x-x-x-x----x--x--x-------------------|
D|---0--0--0-0-0-0---4--4--4-----9--9---9-9-9-9----5--5--5-------------------|
A|---0--0--0-0-0-0---4--4--4-----9--9---9-9-9-9----5--5--5-------------------|
E|---x--x--x-x-x-x---x--x--x-----x--x---x-x-x-x----x--x--x-------------------|

e|---x--x--x-x-x-x---x--x--x-----x--x---x-x-x-x----x--x--x-------------------|
B|---x--x--x-x-x-x---x--x--x-----x--x---x-x-x-x----x--x--x-------------------|
G|---x--x--x-x-x-x---x--x--x-----x--x---x-x-x-x----x--x--x-------------------|
D|---0--0--0-0-0-0---4--4--4-----9--9---9-9-9-9----12-12-12------------------|
A|---0--0--0-0-0-0---4--4--4-----9--9---9-9-9-9----12-12-12------------------|
E|---x--x--x-x-x-x---x--x--x-----x--x---x-x-x-x----x--x--x-------------------|

e|---x--x--x-x-x-x---x--x--x-----x--x---x-x-x-x----x--x--x------x------------|
B|---x--x--x-x-x-x---x--x--x-----x--x---x-x-x-x----x--x--x------x------------|
G|---x--x--x-x-x-x---x--x--x-----x--x---x-x-x-x----x--x--x------x------------|
D|---0--0--0-0-0-0---4--4--4-----9--9---9-9-9-9----5--5--5------0------------|
A|---0--0--0-0-0-0---4--4--4-----9--9---9-9-9-9----5--5--5------0------------|
E|---x--x--x-x-x-x---x--x--x-----x--x---x-x-x-x----x--x--x------x------------|


END

THANKS FOR WATCHING
************************************

| /   slide up
| \   slide down
| h   hammer-on
| p   pull-off
| ~   vibrato
| +   harmonic
| x   Mute note
| b   Bend
| pb  Pre-bend
| br  Bend release
| pbr Pre-bend release
| brb Bend release bend

************************************
Suggest correction
Creating personal tab
Creating personal tab
You can edit any tab online and save it as your Personal.

You can edit, replace or remove any tab part or add personal notes – all changes will be seen only by you.

Personal tabs can be accessed anytime from any device, even offline.
Learn more »
Give kudos to tab author, rate the tab!
1 2 3 4 5
comments
print report bad tab
2 comments total.
0 reply
mike.wylie94 10 Feb 03, 2017 09:11 AM

didn't like this contribution

0 reply
Mr.FerBuckland 81 Jul 19, 2017 11:55 PM

Hi Mike I've corrected the whole tab and now is standar tuning, hope that it can help you.

guest
You may want to rate the tab now too:
select rating
Wanna post a correction for this tab? Suggest correction