Oops, an error
Loading. Please wait.

I Ran Away Tab

6,619 views 12 this week
no commentswrite comment
1 2 3 4 5
accurate
x 6
add to favorites
launch autoscroll
font size
0
reset
how to read this tab
guitar tuner
Autoscroll
slow
fast
+/-
esc
set tempo
stop
Help us to improve Ultimate-Guitar.com Take our survey!
×
Author
Coldplay
I Ran away - Scienist B-side

Tabbed by: Mark Bryce	27th March 2005

Email: Brycey81a@hotmail.com
Web: www.brycey.co.uk


_____________________________________________________

Tuning: EADGBe

Legend
	h    - hammer on
	p    - pull off
	/    - slide up
	x    - muted note


Guitar 1: Electric guitar
Guitar 2: Piano parts


_____________________________________________________


One, two, three, will...


Intro

      C#m         G#m   Aadd9   G#m	   

e|---0--0--0--0---0----0-0-0-0--0-----0--0--0--0---0----0-0-0-0--0--|
B|---x--x--x--x---x----0-0-0-0--x-----x--x--x--x---x----0-0-0-0--x--|
G|---9--9--9--9---4----6-6-6-6--4-----9--9--9--9---4----6-6-6-6--4--|
D|---11-11-11-11--6----7-7-7-7--6-----11-11-11-11--6----7-7-7-7--6--| (x2)
A|---11----11-----6----7---7----6-----11----11-----6----7---7----6--|
E|---9-----9------4----5---5----4-----9-----9------4----5---5----4--|


To play this I usually fret the low E string with my thumb, as this makes sliding from C#m to G#m easier.


_____________________________________________________________

Verse 1:


I ran away from you
That's all I ever do
And though I started here
I ran away from you
I'm gonna come on in
And see it through,



Guitar 1

       C#m        G#m   Aadd9   G#m	   

e|---0--0--0--0---0----0-0-0-0--0-----0--0--0--0---0----0-0-0-0--0--|
B|---x--x--x--x---x----0-0-0-0--x-----x--x--x--x---x----0-0-0-0--x--|
G|---9--9--9--9---4----6-6-6-6--4-----9--9--9--9---4----6-6-6-6--4--|
D|---11-11-11-11--6----7-7-7-7--6-----11-11-11-11--6----7-7-7-7--6--| (x2)
A|---11----11-----6----7---7----6-----11----11-----6----7---7----6--|
E|---9-----9------4----5---5----4-----9-----9------4----5---5----4--|




I ran away from you
That's all I ever do
And when I heard you call
"Come back to me"
I know I should stay
I don't have the stomach to


Guitar 1


       C#m        G#m   Aadd9   G#m	   

e|---0--0--0--0---0----0-0-0-0--0-----0--0--0--0---0----0-0-0-0--0--|
B|---x--x--x--x---x----0-0-0-0--x-----x--x--x--x---x----0-0-0-0--x--|
G|---9--9--9--9---4----6-6-6-6--4-----9--9--9--9---4----6-6-6-6--4--|
D|---11-11-11-11--6----7-7-7-7--6-----11-11-11-11--6----7-7-7-7--6--| (x2)
A|---11----11-----6----7---7----6-----11----11-----6----7---7----6--|
E|---9-----9------4----5---5----4-----9-----9------4----5---5----4--|





_____________________________________________________________

Chrous 1:


Everyone I know says
I'm a fool to mess with you
Everyone I know says
It's a stupid thing to do
I have your love on call
And yet my day is so full

Guitar 1


       E           F#        D          A

e|------------------------------------5-5-5-5-----|
B|---9-9-9-9---11-11-11-11--7-7-7-7---5-5-5-5-----|
G|---9-9-9-9---11-11-11-11--7-7-7-7---6-6-6-6-----|
D|---9-9-9-9---11-11-11-11--7-7-7-7---7-7-7-7-----| (x3)
A|---7-7-7-7---9--9--9--9---5-5-5-5---7-7-7-7-----|
E|------------------------------------5-5-5-5-----|


There might be nothing left to do
So I ran away from you

        D          A

e|--------------5-5-5-5-----|
B|----7-7-7-7---5-5-5-5-----|
G|----7-7-7-7---6-6-6-6-----|
D|----7-7-7-7---7-7-7-7-----| (x2)
A|----5-5-5-5---7-7-7-7-----|
E|--------------5-5-5-5-----|

_____________________________________________________________


Instrumental break 1

Guitar 1


      C#m        G#m   Aadd9    G#m	   

e|---0--0--0--0---0----0-0-0-0--0-----0--0--0--0---0----0-0-0-0--0--|
B|---x--x--x--x---x----0-0-0-0--x-----x--x--x--x---x----0-0-0-0--x--|
G|---9--9--9--9---4----6-6-6-6--4-----9--9--9--9---4----6-6-6-6--4--|
D|---11-11-11-11--6----7-7-7-7--6-----11-11-11-11--6----7-7-7-7--6--| (x2)
A|---11----11-----6----7---7----6-----11----11-----6----7---7----6--|
E|---9-----9------4----5---5----4-----9-----9------4----5---5----4--|



Guitar 2 (piano)


e|----------------------------------------------------------|
B|---12\----------------------------------------------------|
G|--------------------------9--------------8----------------|
D|----------------------------------------------------------|
A|----------------------------------------------------------|
E|----------------------------------------------------------|



Guitar 1


      C#m        G#m   Aadd9    G#m	   

e|---0--0--0--0---0----0-0-0-0--0-----0--0--0--0---0----0-0-0-0--0--|
B|---x--x--x--x---x----0-0-0-0--x-----x--x--x--x---x----0-0-0-0--x--|
G|---9--9--9--9---4----6-6-6-6--4-----9--9--9--9---4----6-6-6-6--4--|
D|---11-11-11-11--6----7-7-7-7--6-----11-11-11-11--6----7-7-7-7--6--| (x2)
A|---11----11-----6----7---7----6-----11----11-----6----7---7----6--|
E|---9-----9------4----5---5----4-----9-----9------4----5---5----4--|



Guitar 2 (piano)


e|----------------------------------------------------------|
B|---12\9------------------------------------------------12-|
G|--------------------------9-------------------------------|
D|----------------------------------------------------------|
A|----------------------------------------------------------|
E|----------------------------------------------------------|

_____________________________________________________________


Verse 2:

I'm gonna come on in
My eyes are closed
I can feel it there
The sun's so close
I'm gonna come on out
And burn the sky


       C#m        G#m   Aadd9   G#m	   

e|---0--0--0--0---0----0-0-0-0--0-----0--0--0--0---0----0-0-0-0--0--|
B|---x--x--x--x---x----0-0-0-0--x-----x--x--x--x---x----0-0-0-0--x--|
G|---9--9--9--9---4----6-6-6-6--4-----9--9--9--9---4----6-6-6-6--4--|
D|---11-11-11-11--6----7-7-7-7--6-----11-11-11-11--6----7-7-7-7--6--| (x2)
A|---11----11-----6----7---7----6-----11----11-----6----7---7----6--|
E|---9-----9------4----5---5----4-----9-----9------4----5---5----4--|




A star arose in my own cage
I'm stuck in life and in a cage
Just a single star
I sing for


       C#m        G#m   Aadd9   G#m	   

e|---0--0--0--0---0----0-0-0-0--------0--0--0--0---0----0-0-0-0--0--|
B|---x--x--x--x---x----0-0-0-0--x-----x--x--x--x---x----0-0-0-0--x--|
G|---9--9--9--9---4----6-6-6-6--4-----9--9--9--9---4----6-6-6-6--4--|
D|---11-11-11-11--6----7-7-7-7--6-----11-11-11-11--6----7-7-7-7--6--| (x2)
A|---11----11-----6----7---7----6-----11----11-----6----7---7----6--|
E|---9-----9------4----5---5----4-----9-----9------4----5---5----4--|




_____________________________________________________________

Chrous 2:


Everyone I know says
I'm a fool to mess with you
Everyone I know says
It's a stupid thing to do
I have your love on call
And yet my day is so full

Guitar 1


       E           F#        D          A

e|------------------------------------5-5-5-5-----|
B|---9-9-9-9---11-11-11-11--7-7-7-7---5-5-5-5-----|
G|---9-9-9-9---11-11-11-11--7-7-7-7---6-6-6-6-----|
D|---9-9-9-9---11-11-11-11--7-7-7-7---7-7-7-7-----| (x3)
A|---7-7-7-7---9--9--9--9---5-5-5-5---7-7-7-7-----|
E|------------------------------------5-5-5-5-----|

There might be nothing left to do
So I ran away from you

Guitar 1

        D          A

e|--------------5-5-5-5-----|
B|----7-7-7-7---5-5-5-5-----|
G|----7-7-7-7---6-6-6-6-----|
D|----7-7-7-7---7-7-7-7-----| (x2)
A|----5-5-5-5---7-7-7-7-----|
E|--------------5-5-5-5-----|


_____________________________________________________________


Instrumental break 2

Guitar 2 (piano)

e|-----------------7-------------|
B|---12\9--10---------9----------|
G|---------------9---------------|
D|---------------------------7---|
A|-------------------------------|
E|-------------------------------|


e|-----------------7-------------|
B|---12\9--10---------9----------|
G|---------------9---------------|
D|---------------------------7---|
A|-------------------------------|
E|-------------------------------|


e|-----------------7-------------|
B|---12\9--10---------9---7-9-10-|
G|---------------9---------------|
D|-------------------------------|
A|-------------------------------|
E|-------------------------------|


e|-----------------7-------------|
B|---12\9--10---------9----------|
G|---------------9---------------|
D|-------------------------------|
A|-------------------------------|
E|-------------------------------|


Enter Guitar 1

         A

e|----5-5-5-5-----|
B|----5-5-5-5-----|
G|----6-6-6-6-----|
D|----7-7-7-7-----|
A|----7-7-7-7-----|
E|----5-5-5-5-----|


_____________________________________________________________

Outro:


Guitar 1


       E           F#        D          A

e|------------------------------------5-5-5-5-----|
B|---9-9-9-9---11-11-11-11--7-7-7-7---5-5-5-5-----|
G|---9-9-9-9---11-11-11-11--7-7-7-7---6-6-6-6-----|
D|---9-9-9-9---11-11-11-11--7-7-7-7---7-7-7-7-----| (x3)
A|---7-7-7-7---9--9--9--9---5-5-5-5---7-7-7-7-----|
E|------------------------------------5-5-5-5-----|


Guitar 1

        D          A

e|--------------5-5-5-5-----|
B|----7-7-7-7---5-5-5-5-----|
G|----7-7-7-7---6-6-6-6-----|
D|----7-7-7-7---7-7-7-7-----| (x2)
A|----5-5-5-5---7-7-7-7-----|
E|--------------5-5-5-5-----|


The End
By Mark Bryce
Suggest correction
comments
print report bad tab
guest
You may want to rate the tab now too:
select rating
Please do not post tabs as comments. Select "correction" instead!