Oops, an error
Loading. Please wait.

Ill See You Soon Tab

version 2
version 2

Whole song

  • Pure picking Version, played live by coldplay.
226 views 9 this week
1 commentread comment
1 2 3 4 5
2 more votes to show rating
add to favorites
launch autoscroll
font size
0
reset
how to read this tab
guitar tuner
Autoscroll
slow
fast
+/-
esc
set tempo
stop
Help us to improve Ultimate-Guitar.com Take our survey!
×
Author
Difficulty
Capo
intermediate
2nd fret
About this tab version
Pure picking Version, played live by coldplay. Was this info helpful? Yes No
This is a picking version of the song, I've seen Chris Martin playing it like this live. But you could also
strum every time you'd pick two notes at the same time in my tab, then it sounds closer to the record.
Don't forget to Downtune your guitar!

TUNING: EGDDBD

Hope you'll like it


[Intro]

D|-------0---------------------0-----------0----------|
B|--3------3---5----7-----2------2---0h2-----2--------|
D|-----0-----0----0----0-----0-----0-----0-----0------|      
D|----------------------------------------------------|
G|--4----------6----7-----2---------------------------|
E|----------------------------------------------------|(x3)

D|------0----------0----------0-----------0-----------|
B|--8-----8----7-----7----2-----2---0h2-----2---------|
D|----0-----0----0-----0----0-----0-----0-----0-------|      
D|----------------------------------------------------|
G|--9----------7----------2---------------------------|
E|----------------------------------------------------|(x1)


[Verse]

D|-------0---------------------0-----------0----------|
B|--3------3---5----7-----2------2---0h2-----2--------|
D|-----0-----0----0----0-----0-----0-----0-----0------|      
D|----------------------------------------------------|
G|--4----------6----7-----2---------------------------|
E|----------------------------------------------------|(x4)
           So you lost your trust ...


[Chorus]

D|--/9-----9----4----7--------0----------0-----|        |--/9-----9----4----7--------0----------0-------|
B|-------0----------------7-----7----2-----2---|        |-------0----------------7-----7----8-----8-----|
D|-----9-----9----4----7----0-----0----0-----0-|        |-----9-----9----4----7----0-----0----0-----0---|    
D|--/0----------0----0-------------------------|        |--/0----------0----0---------------------------|
G|------------------------7----------2---------|        |------------------------7----------7-----------|
E|---------------------------------------------|(x1)    |-----------------------------------------------|(x2)
           In a bullet-proof west ...

D|------0----------0----------0-----------0-------|
B|--8-----8----7-----7----2-----2---0h2-----2-----|
D|----0-----0----0-----0----0-----0-----0-----0---|      
D|------------------------------------------------|
G|--9----------7----------2-----------------------|
E|------------------------------------------------|(x1)


[Interlude]

D|-------0---------------------0-----------0----------|
B|--3------3---5----7-----2------2---0h2-----2--------|
D|-----0-----0----0----0-----0-----0-----0-----0------|      
D|----------------------------------------------------|
G|--4----------6----7-----2---------------------------|
E|----------------------------------------------------|(x2)


[Verse]

[Chorus]

[Outro]

D|-------0---------------------0-----------0----------|
B|--3------3---5----7-----2------2---0h2-----2--------|
D|-----0-----0----0----0-----0-----0-----0-----0------|       
D|----------------------------------------------------|
G|--4----------6----7-----2---------------------------|
E|----------------------------------------------------|(x4)

D|------0----------0----------0-----------0-----------|
B|--8-----8----7-----7----2-----2---0h2-----2---------|
D|----0-----0----0-----0----0-----0-----0-----0-------|      
D|----------------------------------------------------|
G|--9----------7----------2---------------------------|
E|----------------------------------------------------|(x4)


If you wanna have a final chord, I've seen Chris Martin using this one live:

D|---0----|
B|---0----|
D|---0----|
D|---0----|
G|---0----|
E|---3----|

or this, which I use sometimes but it is quite a stretch:

D|---7----|
B|---0----|
D|---0----|
D|---0----|
G|---0----|
E|---3----|


************************************

| h  Hammer-on
| /  Slide up

************************************
Suggest correction
Give kudos to tab author, rate the tab!
1 2 3 4 5
comments
print report bad tab
1 comment total.
0 reply
uttamo 20 Sep 02, 2016 05:57 PM

Song is called See You Soon

guest
You may want to rate the tab now too:
select rating
Wanna post a correction for this tab? Suggest correction