Oops, an error
Loading. Please wait.

In My Place Tab

version 6
11,067 views 57 this week
1 commentread comment
1 2 3 4 5
x 8
add to favorites
launch autoscroll
font size
0
reset
how to read this tab
guitar tuner
×
Best way to learn
"In My Place"
Autoscroll
slow
fast
+/-
esc
set tempo
stop
Author
Difficulty
  follow
novice
[Intro] 
(LEAD)
e|---12---12--------9----9--|
B|---------------12---12----|
G|------9----9--------------|
D|--------------------------|x3  (Riff 1)
A|--------------------------|
E|--------------------------|

e|---12---12------8/9------9----9-----|
B|----------------------12---12-------|
G|------9-----------------------------|
D|------------------------------------| (Riff 2)
A|------------------------------------|
E|------------------------------------|

(Then Start Over Again but Don't play the (Riff 2) Play This)

e|---12---12------8/9------9----9-------|
B|----------------------12---12-----10--|
G|------9-------------------------------|
D|--------------------------------------|
A|--------------------------------------|
E|--------------------------------------|

[Verse]
e|------12--|
B|----------|
G|----------|
D|----------|(Riff 3)
A|----------|
E|----------|

e|-12------------|
B|--------7---9--|
G|-----9---------|
D|---------------|(Riff 4)
A|---------------|
E|---------------|

e|E------------|
B|------------|
G|------------|
D|------7-----|(Riff 5)
A|-7h-9-------|
E|------------|

Chords Used For Verse:
A     E      F#m      E

In my place
In my place
The lines that
I couldn’t change
I was lost, oh yeah
And I was lost
I was lost
Crossed lines
I shouldn't have crossed
I was lost, oh yeah

Chords Used for This:
D    A     E     D

Yeah (Riff 5), How l-(Riff 3)-ong must you
Wait for it?

Yeah (Riff 5), how l-(Riff 3)-ong must you
Pay for it?

Yeah, How l-(Riff 3)-ong must you
Wait for it?

A For i-(Riff 4)-t?

e|---12---12--------9----9--|
B|---------------12---12----|
G|------9----9--------------|
D|--------------------------|x3
A|--------------------------|
E|--------------------------|

e|---12---12------8/9------9----9-------|
B|----------------------12---12-----10--|
G|------9----9--------------------------|
D|--------------------------------------|
A|--------------------------------------|
E|--------------------------------------|

[Verse]
I was scared, I was scared,
Tired and underprepared,
But I'll wait for it.

(Play This The Next Verses
I'm not sure if its right though.)

e|--5------5--4-----4--4-----4--4-----4-|
B|--------------------------------------|
G|-----6--------4--------4--------4-----|
D|--------------------------------------|
A|--------------------------------------|
E|--------------------------------------|

If you go, if you go,
Leaving me here on my own,
Well I wait for you, yeah.

Yeah (Riff 5), how l-(Riff 3)-ong must you wait for it?

Yeah (Riff 5), how l-(Riff 3)-ong must you pay for it?

Yeah, how l-(Riff 3)-ong must you wait for it?

A for i(riff 4)t?

[Solo]
e|---12---12--------9----9--|
B|---------------12---12----|
G|------9----9--------------|
D|--------------------------|x3  (Riff 1)
A|--------------------------|
E|--------------------------|

e|---12---12------8/9------9----10----|
B|----------------------12---12-------|
G|------9-----------------------------|
D|------------------------------------| (Riff 2)
A|------------------------------------|
E|------------------------------------|

e|---12---12--------9----9--|
B|---------------12---12----|
G|------9----9--------------|
D|--------------------------|
A|--------------------------|
E|--------------------------|

e|---12---12------8/9------9----10------|
B|----------------------12---12---------|
G|------9-------------------------------|
D|--------------------------------------|
A|--------------------------------------|
E|--------------------------------------|

e|---12---12--------9----9--|
B|---------------12---12----|
G|------9----9--------------|
D|--------------------------|
A|--------------------------|
E|--------------------------|

e|---12---12------8/9------9----10--------|
B|----------------------12---12-----------|
G|------9---------------------------------|
D|----------------------------------------|
A|----------------------------------------|
E|----------------------------------------|

(Keep On playing the solo)

Please, please, please,
Come on and sing to me,
To me, me.

Come on and sing it out, out, out.
Come on and sing it now, now, now.
Come on and sing it.

Just Orchestra for this verse:

In my place, in my place,
Were lines that I couldn't change,
I was lost, oh yeah.
Oh yeah.


************************************

| /  Slide up
| h  Hammer-on

************************************
Suggest correction
comments
print report bad tab
1 comment total.
0 reply
rishav.misterio619 16 Jan 19, 2016 06:31 AM

here is the tutorial and cover of the song

https://www.youtube.com/watch?v=03ueMl_YnnE

guest
You may want to rate the tab now too:
select rating
Wanna post a correction for this tab? Suggest correction