Oops, an error
Loading. Please wait.

In My Place Tab

version 6
7,153 views 3 this week
1 commentread comment
1 2 3 4 5
please rate
add to favorites
launch autoscroll
font size
0
reset
how to read this tab
guitar tuner
Tab Pro tools
  • play this tab
  • loop segment
  • change instrument
  • show fretboard
  • metronome
×
Best way to learn
"In My Place"
Autoscroll
slow
fast
+/-
esc
set tempo
stop
Contributor
Difficulty
Capo
novice
2nd fret
Title: In My Place,
Artist: Coldplay
Tabbed by: Christoffer DK (from the tab by Dean Swift)

I've only change a few tabs and chords. There were some small anoying thnigs...

GTR.1 – electric w/slight overdrive, standard tuning (EADGBe)
GTR.2 – acoustic, standard tuning (EADGBe) capo 2nd fret

NB: remember that gtr.2 has capo on second fret, so you'll have to change a little if 
want to play both...
take care and enjoy!

Intro:
    GTR.1
    (0:06)
E|-12-12-7-9-7-9|-12-12-7-9-7-9|
A|--------------|--------------|
D|--------------|--------------|
G|--------------|--------------|
B|--------------|--------------|
e|--------------|--------------|

E|-12-12-7-9-7-9|-12-12-9b(10)----9----9---|
A|--------------|--------------12---12-----|
D|--------------|--------------------------|
G|--------------|--------------------------|
B|--------------|--------------------------|
e|--------------|--------------------------|

E|-12-12-7-9-7-9|-12-12-7-9-7-9|
A|--------------|--------------|
D|--------------|--------------|
G|--------------|--------------|
B|--------------|--------------|
e|--------------|--------------|
                                            *GTR.1 out
E|-12-12-7-9-7-9|-12-12-9b(10)----9----9------|
A|--------------|--------------12---12---10-*-|
D|--------------|-----------------------------|
G|--------------|-----------------------------|
B|--------------|-----------------------------|
e|--------------|-----------------------------|

verse 1:(0:33) - GTR.2 only
G    G/F#     Bm
  In my place, in my___ place
           D             G
  Were lines that I couldn't change
           Em     Bm
  I was lost, oh yeah
G    G/F      Bm
   I was lost, I was lost
       D                G
  Crossed lines I shouldn't have crossed
           Em   Bm     D
  I was lost, oh yeah


Chorus 1: GTR 1 - (0:59)
D       A          E     D
Yeah, How long must you wait for it?
D       A          E     D
Yeah, How long must you pay for it?
D       A          E     D
Yeah, How long must you wait for it?
   D (riff 1)
Ah, For it

Riff 1:
   D         * into instrumental

E|---------4-*----------|
A|---0-3-0--------------|
D|----------------------|
G|----------------------|
B|----------------------|
e|----------------------|


Instrumental: - GTR.1
   (1:26)
E|-12-12-7-9-7-9|-12-12-7-9-7-9|
A|--------------|--------------|
D|--------------|--------------|
G|--------------|--------------|
B|--------------|--------------|
e|--------------|--------------|
                                            *GTR.1 out
E|-12-12-7-9-7-9|-12-12-9b(10)----9----9------|
A|--------------|--------------12---12---10-*-|
D|--------------|-----------------------------|
G|--------------|-----------------------------|
B|--------------|-----------------------------|
e|--------------|-----------------------------|
verse 2:(1:40) - GTR.2 only
G    G/F#     Bm
  I was scared I was scared
           D             G
  Tierd and under prepared
          Em   Bm
  But I wait for it
G    G/F      Bm
  And if you go, if you go
           D             G
  And leave me down here on my own
           Em   Bm
  Then I'll wait for you
   D
  Yeah

Chorus 2: GTR 1 - (2:06)
D       A          E     D
Yeah, How long must you wait for it?
D       A          E      D
Yeah, How long must you pay for it?
D       A          E      D
Yeah, How long must you wait for it?
          D (riff 1)
Ah, For it

Riff 1:
   D         * into instrumental
E|---------4-*----------|
A|---0-3-0--------------|
D|----------------------|
G|----------------------|
B|----------------------|
e|----------------------|

    Instrumental: - GTR.1
   (2:32)
(slower than others)
E|-12-12-7-9-7-9|-12-12-7-9-7-9|
A|--------------|--------------|
D|--------------|--------------|
G|--------------|--------------|
B|--------------|--------------|
e|--------------|--------------|

E|-12-12-7-9-7-9|-12-12-9b(10)----9----9---|
A|--------------|--------------12---12-----|
D|--------------|--------------------------|
G|--------------|--------------------------|
B|--------------|--------------------------|
e|--------------|--------------------------|

E|-12-12-7-9-7-9|-12-12-9b(10)----9----9---|
A|--------------|--------------12---12-----|
D|--------------|--------------------------|
G|--------------|--------------------------|
B|--------------|--------------------------|
e|--------------|--------------------------|

E|-12-12-7-9-7-9|-12-12-9b(10)----9----9--|
A|--------------|--------------12---12----|
D|--------------|-------------------------|
G|--------------|-------------------------|
B|--------------|-------------------------|
e|--------------|-------------------------|


verse 3:(2:59) - GTR.1

E|-12-12-7-9-7-9|-12-12-7-9-7-9|
A|--------------|--------------|
D|--------------|--------------|
G|--------------|--------------|
B|--------------|--------------|
e|--------------|--------------|

E|-12-12-7-9-7-9|-12-12-9b(10)----9----9---|
A|--------------|--------------12---12-----|
D|--------------|--------------------------|
G|--------------|--------------------------|
B|--------------|--------------------------|
e|--------------|--------------------------|

E|-12-12-7-9-7-9|-12-12-9b(10)----9----9---|
A|--------------|--------------12---12-----|
D|--------------|--------------------------|
G|--------------|--------------------------|
B|--------------|--------------------------|
e|--------------|--------------------------|
                                           * hold note
E|-12-12-7-9-7-9|-12-12-9b(10)----9----9-----|
A|--------------|--------------12---12---10*-|
D|--------------|----------------------------|
G|--------------|----------------------------|
B|--------------|----------------------------|
e|--------------|----------------------------|

verse 3:(2:59) - GTR.2
      G     G/F#  Bm
Singing please, please, please
     D            G
Come back and sing to me
     Em    Bm
To me, me
     D         G  G/F#    Bm
Come on and sing it out, now, now
           D         G  Em      Bm
Come on and sing it out, to me, me
     D                     *(GTR.1 finishes)
Come back and sing
G     G/F#     Bm
  In my place, in my place
     D             G
  Were lines that I couldn't change
                 Em         Bm   D   G
  And I was lost, oh yeah,           oh   yeah
comments
We did not receive enough feedback on this tab! Please rate:
print report bad tab
1 2 3 4 5
1 comment total.
0 reply
Maitinin wrote on May 2 2007, 08:38 am

hmm, the intro-riff has the right notes and all, but that's just the wrong way of playing them, and the chords are a bit off...

I want to post or [tab]
guest
You may want to rate the tab now too:
select rating
Please do not post tabs as comments. Select "correction" instead!