Oops, an error
Loading. Please wait.

Ink Tab

version 1
version 1

Whole song

5,321 views 15 this week
2 commentsread comments
1 2 3 4 5
x 5
add to favorites
launch autoscroll
font size
0
reset
how to read this tab
guitar tuner
Autoscroll
slow
fast
+/-
esc
set tempo
stop
Help us to improve Ultimate-Guitar.com Take our survey!
×
Difficulty
novice
So recently I've had 'Ink' on repeat and have been entranced by that riff Jonny is 
playing in the background.
I just picked up my guitar and had a go at tabbing it by ear real quick, and here is 
what I got... Bare in mind I'm a drummer and have been for 7 years, I only picked up the 
guitar recently and even then have put little to no time into it.

E|----------------------------------------------------------------|
B|---------------------------11----------------------9--7-----7---|
G|--11--11--11--11--13------11--11--11--11--------8---------------|
D|----------------------------------------------------------------|
A|----------------------------------------------------------------|
E|----------------------------------------------------------------|

If any actual guitar players feel it needs adjusting then please feel free. I'm just 
placing this here for anyone who would like to play along since it's a lovely little riff!
Suggest correction
comments
print report bad tab
2 comments total.
0 reply
TOMMYGULLY2012 987 May 22, 2014 03:41 PM

the way its played is slightly inconvenient and maybe incorrect, maybe try this instead?;

E|----------------------------------------------------------------|
B|----------------------11----------------------------------------|
G|--11--11--11--11--13---------11--11--11--11--13--11------11-----|
D|-----------------------------------------------------13---------|
A|----------------------------------------------------------------|
E|----------------------------------------------------------------|

0 reply
gdshambo 10 May 02, 2015 08:10 PM

Lack of accuracy. Tab incomplete. Clearly wrong. Bad tab. It only tabs a little riff that is really not that hard to figure out and it does very badly. It shouldn't be on the page as its completely wrong.

guest
You may want to rate the tab now too:
select rating
Wanna post a correction for this tab? Suggest correction