Oops, an error
Loading. Please wait.

Low bass

version 3
version 3

Whole song

19 views 1 this week
no commentswrite comment
1 2 3 4 5
3 more votes to show rating
add to favorites
×
Save as Personal and add changes to this tab that will be seen only by you. Learn more ›
×
You can save this tab as Personal to edit and correct it or add notes. All changes will be seen only by you. Learn more »
launch autoscroll
font size
0
reset
guitar tuner
edit
Autoscroll
slow
fast
+/-
esc
set tempo
stop
[Intro]
G|-------------------------------------------------------|
D|-------------------------------------------------------|
A|3-3-3--3-3-3--3-3-3--3-3-3--0-0-0--0-0-0--0-0-0--0-0-0-|
E|-------------------------------------------------------|

G|--------------------------------------------------------|
D|2-2-2--2-2-2--2-2-2--2-2-2------------------------------|
A|----------------------------0-0-0--0-0-0--0-0-0--0-0-0--|
E|--------------------------------------------------------|

[Break Part A]
G|-------------------------------------------------------|
D|-------------------------------------------------------|
A|3-3-3--3-3-3--3-3-3--3-3-3--3-3-3--3-3-3--3-3-3--3-3-3-|
E|-------------------------------------------------------|

[Verse] 
G|------------------------------------------------------------------|
D|14-14--14-14-14--14-14-14-- 14-12-12--12-9-9--9-9-9--9-9-9--9-9-9-|
A|------------------------------------------------------------------|
E|------------------------------------------------------------------|

G|-----------------------------------------------------------------|
D|-9-10-10--10-10-10--10-7-7--7-7-7--7-----------------------------|
A|-------------------------------------7-7--7-7-7--7-7-7--7-7-7--7-|
E|-----------------------------------------------------------------|

G|------------------------------------------------------------------|
D|14-14--14-14-14--14-14-14-- 14-12-12--12-9-9--9-9-9--9-9-9--9-9-9-|
A|------------------------------------------------------------------|
E|------------------------------------------------------------------|

G|-----------------------------------------------------------------|
D|-9-10-10--10-10-10--10-7-7--7-7-7--7-----------------------------|
A|-------------------------------------7-7--7-7-7--7-7-7--7-7-7--7-|
E|-----------------------------------------------------------------|

G|------------------------------------------------------------------|
D|14-14--14-14-14--14-14-14-- 14-12-12--12-9-9--9-9-9--9-9-9--9-9-9-|
A|------------------------------------------------------------------|
E|------------------------------------------------------------------|

G|-----------------------------------------------------------------|
D|-9-10-10--10-10-10--10-7-7--7-7-7--7-----------------------------|
A|-------------------------------------7-7--7-7-7--7-7-7--7-7-7--7-|
E|-----------------------------------------------------------------|

G|------------------------------------------------------------------|
D|14-14--14-14-14--14-14-14-- 14-12-12--12-9-9--9-9-9--9-9-9--9-9-9-|
A|------------------------------------------------------------------|
E|------------------------------------------------------------------|

G|-----------------------------------------------------------------|
D|-9-10-10--10-10-10--10-7-7--7-7-7--7-----------------------------|
A|-------------------------------------7-7--7-7-7--7-7-7--7-7-7--7-|
E|-----------------------------------------------------------------|

[Break Part B]
G|---------------------------|
D|---------------------------|
A|7-7-7--7-7-7--7-7-7--7-7-7-|
E|---------------------------|

[Chorus]
G|-------------------------------------------------------|
D|-------------------------------------------------------|
A|3-3-3--3-3-3--3-3-3--3-3-3--0-0-0--0-0-0--0-0-0--0-0-0-|
E|-------------------------------------------------------|

G|--------------------------------------------------------|
D|2-2-2--2-2-2--2-2-2--2-2-2------------------------------|
A|----------------------------0-0-0--0-0-0--0-0-0--0-0-0--|
E|--------------------------------------------------------|

G|-------------------------------------------------------|
D|-------------------------------------------------------|
A|3-3-3--3-3-3--3-3-3--3------0-0-0--0-0-0--0-0-0--0-0-0-|
E|-----------------------3-3-----------------------------|

G|--------------------------------------------------------|
D|2-2-2--2-2-2--2-2-2--2-2-2------------------------------|
A|----------------------------0-0-0--0-0-0--0-0-0--0-0-0--|
E|--------------------------------------------------------|

[Break Part A]
G|-------------------------------------------------------|
D|-------------------------------------------------------|
A|3-3-3--3-3-3--3-3-3--3-3-3--3-3-3--3-3-3--3-3-3--3-3-3-|
E|-------------------------------------------------------|

[Verse] 
G|------------------------------------------------------------------|
D|14-14--14-14-14--14-14-14-- 14-12-12--12-9-9--9-9-9--9-9-9--9-9-9-|
A|------------------------------------------------------------------|
E|------------------------------------------------------------------|

G|-----------------------------------------------------------------|
D|-9-10-10--10-10-10--10-7-7--7-7-7--7-----------------------------|
A|-------------------------------------7-7--7-7-7--7-7-7--7-7-7--7-|
E|-----------------------------------------------------------------|

G|------------------------------------------------------------------|
D|14-14--14-14-14--14-14-14-- 14-12-12--12-9-9--9-9-9--9-9-9--9-9-9-|
A|------------------------------------------------------------------|
E|------------------------------------------------------------------|

G|-----------------------------------------------------------------|
D|-9-10-10--10-10-10--10-7-7--7-7-7--7-----------------------------|
A|-------------------------------------7-7--7-7-7--7-7-7--7-7-7--7-|
E|-----------------------------------------------------------------|

G|------------------------------------------------------------------|
D|14-14--14-14-14--14-14-14-- 14-12-12--12-9-9--9-9-9--9-9-9--9-9-9-|
A|------------------------------------------------------------------|
E|------------------------------------------------------------------|

G|-----------------------------------------------------------------|
D|-9-10-10--10-10-10--10-7-7--7-7-7--7-----------------------------|
A|-------------------------------------7-7--7-7-7--7-7-7--7-7-7--7-|
E|-----------------------------------------------------------------|
Verse Extra
G|------------------------------------------------------------------|
D|10-10-10--10-10-10--10-7-7--7-7-7--7------------------------------|
A|--------------------------------------7-7--7-7-7--7-7-7--7-7-7--7-|
E|------------------------------------------------------------------|

[Break Part B]
G|---------------------------|
D|---------------------------|
A|7-7-7--7-7-7--7-7-7--7-7-7-|
E|---------------------------|

[Chorus] 
G|-------------------------------------------------------|
D|-------------------------------------------------------|
A|3-3-3--3-3-3--3-3-3--3-3-3--0-0-0--0-0-0--0-0-0--0-0-0-|
E|-------------------------------------------------------|

G|--------------------------------------------------------|
D|2-2-2--2-2-2--2-2-2--2-2-2------------------------------|
A|----------------------------0-0-0--0-0-0--0-0-0--0-0-0--|
E|--------------------------------------------------------|

G|-------------------------------------------------------|
D|-------------------------------------------------------|
A|3-3-3--3-3-3--3-3-3--3------0-0-0--0-0-0--0-0-0--0-0-0-|
E|-----------------------3-3-----------------------------|

G|--------------------------------------------------------|
D|2-2-2--2-2-2--2-2-2--2-2-2------------------------------|
A|----------------------------0-0-0--0-0-0--0-0-0--0-0-0--|
E|--------------------------------------------------------|

G|-------------------------------------------------------|
D|-------------------------------------------------------|
A|3-3-3--3-3-3--3-3-3--3-3-3--0-0-0--0-0-0--0-0-0--0-0-0-|
E|-------------------------------------------------------|

G|--------------------------------------------------------|
D|2-2-2--2-2-2--2-2-2--2-2-2------------------------------|
A|----------------------------0-0-0--0-0-0--0-0-0--0-0-0--|
E|--------------------------------------------------------|

G|-------------------------------------------------------|
D|-------------------------------------------------------|
A|3-3-3--3-3-3--3-3-3--3------0-0-0--0-0-0--0-0-0--0-0-0-|
E|-----------------------3-3-----------------------------|

G|--------------------------------------------------------|
D|2-2-2--2-2-2--2-2-2--2-2-2------------------------------|
A|----------------------------0-0-0--0-0-0--0-0-0--0-0-0--|
E|--------------------------------------------------------|

[Outro]
G|-----------------------------------------------------------------------------|
D|5-------3-5-3-5------3-5-3-5-----3-5-3-5----3-5-3-5---3-5-3-5----------------|
A|------5------------5-----------5----------5---------5---------3----0-----/12-|
E|-----------------------------------------------------------------------------|

G|----------------------------------------------------------------------------|
D|5-------3-5-3-5------3-5-3-5-----3-5-3-5----3-5-3-5--3-5-3-5----------------|
A|------5------------5-----------5----------5---------5--------7----0-----/12-|
E|----------------------------------------------------------------------------|

G|---------------------9-7---------------------9-7----------------------------------|
D|5-------3-5-3-5----------9-7-5-----3-5-3-5--------9-7-5----3-5-3-5----------------|
A|------5--------------------------5-----------------------5---------3----0-----/12-|
E|----------------------------------------------------------------------------------|

            
            
Suggest correction
Creating personal tab
Creating personal tab
You can edit any tab online and save it as your Personal.

You can edit, replace or remove any tab part or add personal notes – all changes will be seen only by you.

Personal tabs can be accessed anytime from any device, even offline.
Learn more »
Give kudos to tab author, rate the tab!
1 2 3 4 5
comments
print report bad tab
guest
You may want to rate the tab now too:
select rating
Wanna post a correction for this tab? Suggest correction