Oops, an error
Loading. Please wait.

Miracles Someone Special tab

1,861 views 42 this week
no commentswrite comment
1 2 3 4 5
x 5
add to favorites
×
Save as Personal and add changes to this tab that will be seen only by you. Learn more ›
×
You can save this tab as Personal to edit and correct it or add notes. All changes will be seen only by you. Learn more »
launch autoscroll
font size
0
reset
how to read this tab
guitar tuner
edit
Autoscroll
slow
fast
+/-
esc
set tempo
stop
About this tab version
This is the original version of the song – Hope you enjoy – Thanks For Watching. Was this info helpful? Yes No
[Intro] 

(In the live version Jonny play)
e|---------------------------------------------------------------------------|
B|---------------------------------------------------------------------------|
G|---/11---11\6---6/8---8/11---11\10-|---10\6---6/8---8/11-------------------|
D|---------------------------------------------------------------------------|
A|---------------------------------------------------------------------------|
E|---------------------------------------------------------------------------|

e|---------------------------------------------------------------------------|
B|---------------------------------------------------------------------------|
G|----11\6---6/8---8/11---11\10--|---10\6---6/8---8/11-----------------------|
D|---------------------------------------------------------------------------|
A|---------------------------------------------------------------------------|
E|---------------------------------------------------------------------------|

[Verse] 

Now you could run just say they're right... 
e|-----------------------------------------------------|--------------------------------------------------|
B|--11--11--(11)--11----9---9---11----9----9---9---(9)-|-11--11--(11)--11----9---9---(9)---9--(9)---9---9-|
G|--11--11--(11)--11---11--11---11---11---11--11--(11)-|-11--11--(11)--11---10--10--(10)--10-(10)--10--10-| X3
D|-----------------------------------------------------|--------------------------------------------------|
A|-----------------------------------------------------|--------------------------------------------------|
E|-----------------------------------------------------|--------------------------------------------------|

Keep on dancing all life long...
e|------------------------|-----------------------------------------------------|
B|------------------------|-----------------------------------------------------|
G|------------------------|-----------------------------------------------------| X2
D|---11h12-13---11h12-13--|---11--(11)--11--(11)--(11)--11--(11)--11--(11)--11--|
A|------------------------|-----------------------------------------------------|
E|------------------------|-----------------------------------------------------|

[Chorus]

Yeah you could be... Someone Special... 
e|----------------------------------------|-----------------------------------------|
B|----14p11---12p11---12--11--------------|---14p11---12p11---12--11----------------|
G|----------------------------11------11--|----------------------------11------11---|
D|--------------------------------11------|-------------------------------11--------|
A|----------------------------------------|-----------------------------------------|
E|----------------------------------------|-----------------------------------------|

e|------------------------|---------------------------------------------------|
B|------------------------|---------------------------------------------------|
G|---13---11--11--10--11--|---13--13---13---11--10--11------------------------|
D|------------------------|----------------------------11---------------------|
A|------------------------|---------------------------------------------------|
E|------------------------|---------------------------------------------------|


***********************************

| /   Slide up
| \   Slide down
| h   Hammer-on
| p   Pull-off

***********************************

            
            
Suggest correction
Creating personal tab
Creating personal tab
You can edit any tab online and save it as your Personal.

You can edit, replace or remove any tab part or add personal notes – all changes will be seen only by you.

Personal tabs can be accessed anytime from any device, even offline.
Learn more »
comments
print report bad tab
guest
You may want to rate the tab now too:
select rating
Wanna post a correction for this tab? Suggest correction