Oops, an error
Loading. Please wait.

Moving To Mars solo tab

82 views 1 this week
no commentswrite comment
1 2 3 4 5
3 more votes to show rating
add to favorites
×
Save as Personal and add changes to this tab that will be seen only by you. Learn more ›
×
You can save this tab as Personal to edit and correct it or add notes. All changes will be seen only by you. Learn more »
launch autoscroll
font size
0
reset
how to read this tab
guitar tuner
edit
Autoscroll
slow
fast
+/-
esc
set tempo
stop
In the 3rd-5th bars where the same note is being played over and over is intented to be tremolo picking.
Since this is only my second tab, I don't know if there is a proper symbol/format to indicate tremolo picking
or if you just list our the notes like i did below.

[Solo]
E|-----------------------------------------------------------------------------|
B|-14----14----14--13--11--9---14----14----14--13--11--9---13----13--13--13--9-|
G|-----------------------------------------------------------------------------|
D|-----------------------------------------------------------------------------|
A|-----------------------------------------------------------------------------|
E|-----------------------------------------------------------------------------|


E|--------------------------------------------------------------------------|
B|--9--13---14----14-(16)-14--13--11--9---14----14-(16)-14--13--11--9---13--|
G|--------------------------------------------------------------------------|
D|--------------------------------------------------------------------------|
A|--------------------------------------------------------------------------|
E|--------------------------------------------------------------------------|

"They'll be tearing us apart, maybe moving us to Ma-a-ars"

E|---------------------------------------------------------------------------------------------|
B|--8--8-8--11--8---8-8/9---6-6-6--8-9--11---20--20-20-20-20-20-20-20-20-20-20-20-20-20-20-21--|
G|---------------------------------------------------------------------------------------------|
D|---------------------------------------------------------------------------------------------|
A|---------------------------------------------------------------------------------------------|
E|---------------------------------------------------------------------------------------------|

                                    Past the satelites and stars
E|--------------------------------------------------------------------------|
B|-21-21-21-21-21-21-21-21---21--20----------------------------18-18-18-18--|
G|--------------------------------------------------------------------------|
D|--------------------------------------------------------------------------|
A|--------------------------------------------------------------------------|
E|--------------------------------------------------------------------------|

E|--------------------------------------------------------------------------|
B|-13-13-(tremolo pick 13 untill end----------------------------------------|
G|--------------------------------------------------------------------------|
D|--------------------------------------------------------------------------|
A|--------------------------------------------------------------------------|
E|--------------------------------------------------------------------------|



************************************

| (n)  Ghost note
| /    Slide up
 

************************************

            
            
Suggest correction
Creating personal tab
Creating personal tab
You can edit any tab online and save it as your Personal.

You can edit, replace or remove any tab part or add personal notes – all changes will be seen only by you.

Personal tabs can be accessed anytime from any device, even offline.
Learn more »
Give kudos to tab author, rate the tab!
1 2 3 4 5
comments
print report bad tab
guest
You may want to rate the tab now too:
select rating
Wanna post a correction for this tab? Suggest correction