Oops, an error
Loading. Please wait.

Parachutes Chords

version 1
version 1

Album

Interactive

165,361 views 69 this week
3 commentsread comments
1 2 3 4 5
x 17
add to favorites
launch autoscroll
font size
0
reset
transpose
0
reset
simplify chords
display chords
guitar tuner
Autoscroll
slow
fast
+/-
esc
set tempo
stop
Help us to improve Ultimate-Guitar.com Take our survey!
×
Author
Coldplay's first studio album

1. Dont Panic
This is a great song and really simple but timing and stuff is more
than I can be arsed with so listen to the record for rhythm and timing


[Intro] 

F chord with hammer on's

e|-1-1---1-1-0-h-1-1----1-1--------------------|
B|-1-1---1-1-0-h-1-1----1-1--------------------|
G|-2-0-h-2-2-2---2-0-h-2-2---------------------|
D|-3-3---3-3-3---3-3----3-3--------------------|                
A|-3-3---3-3-3---3-3----3-3--------------------|
E|-1-1---1-1-1---1-1---1-1---------------------|(x2)


[Verse 1]

Am                         C                          F (hammer like in
[Intro]
Bones sinking like stones all that we fought for
Homes all that we've grown all of us are done for


[Chorus]

Dm                      Am                   Em
And we live in a beautiful world yeah we do yeah we do
We live in a beautiful world


[Verse 2]

Am                        C                            F(with hammer)
Bones sinking like stones all that we've fought for
Homes all that we've grown all of us are done for


[Chorus]

Dm                       Am                    Em
We live in a beautiful world yeah we do yeah we do
We live in a beautiful world


[Instrumental Verse] 
(same chords as before)


[Chorus]

Dm                       Am                  Em
We live in a beautiful world yeah we do yeah we do
We live in a beautiful world


[Instrumental Verse] (x4)


[Outro]

Am                       C                                            F
Oh all that I know there's nothing here to run from
Cos yes everybody here's got somebody to lean on


2. Shiver


[Intro]

(B - F#m - A9 - G#m) (x3) A9 - G#m


[Verse 1]

E
So I look in your direction,
                                B
And you pay me no attention do you?
E
I know you don't listen to me,

Cos you say you see straight through me,
      B
Don't you?

          C#m
But on and on,

From the moment I wake,
                 F#
To the moment I sleep,

I'll be there by your side,
                     C#m
Just you try and stop me,

I'll be waiting in line,
                     B
Just to see if you care

 G#m         D#7          G#m
Oh, did you want me to change?
           D#7        G#m
Well I'd change for good,
         D#7        B            A9               G#m
And I want you to know that you'll always get your way
         D#7       B/D# - C#7/9 - C#m7/9
And I wanted to say
            B    F#m - A9 - G#m
Don't you shiver
             B   F#m - A9 - G#m
Don't you shiver
             B  F#m    A9  G#m
I'll sing it loud and clear
       A9                     G#m
And I'll always be waiting for you

        E
So you know how much I need you,
                               B
But you never even see me do you?
                                        B
And is this my final chance of getting you?
         C#m
But on and on,

From the moment I wake,

              F#
To the moment I sleep,

I'll be there by your side,
                     C#m
Just you try and stop me,

I'll be waiting in line,
                    B
Just to see if you care

          D#7         G#m
Did you want me to change?
         D#7          G#m
Well I'd change for good,
         D#7        B/D#        A9                G#m
And I want you to know that you'll always get your way
        D#7      B/D# - C#7/9 - C#m7/9
And I wanted to say...

              B   F#m - A9 - G#m
Don't you shiver
              B    F#m - A9 - G#m
Don't you shiver,

           B   F#m    A9   G#m
I'll sing it loud and clear
            A9                   G#m
Yeah I'll always be waiting for you
          A9                    G#m
Yeah I'll always be waiting for you
          A9                    G#m
Yeah I'll always be waiting for you
             A9
For you, I will always be waiting

        B           F#m
And it's you that I see,
        A9        G#m
But you don't see me
        B           F#m
And its you, that I hear,
     A9           G#m
So loud and so clear
          B   F#m  A9  G#m
I sing it loud and clear
      A9                      G#m
And I'll always be waiting for you
       E
So I look in your direction,

And you pay me no attention,
         E
And you know how much I need you

But you never even see me


Chords:
                  B: 7 9 9 8 0 0
                F#m: 2 4 4 2 2 2
                 A9: 5 7 7 6 0 0
                G#m: 4 6 6 4 4 4
                 E : 0 2 2 1 0 0
                C#m: - 4 6 6 5 4
                F# : 2 4 4 3 0 0
                D#7: - 6 5 6 4 -
               B/D#: - 6 4 4 4 -
              C#7/9: - 4 3 4 4 -
             C#m7/9: - 4 2 4 4 -


3. Spies

Tuning: E A C# G B C#

CHORDS USED: C#m:9X0990 F#m:2X0220 E6:020120 A:5X0650 G#m11:4X0440

Badd9:7X0870 B6/9:7X0890 B/A:5X0860 
F#m13:2X2200 G#m13:4X4400

D#m7b5:11.X.12.11.10.0 
G#sus4:4X0540 
G#add11:4X0540 
F#:2X0320

Listen for timing, it's kind of complicated


[Intro]

C#m


[Verse 1]

F#m                             E6
I awake to find no peace of mind
               A                   G#11
I said "How do you live    as a fugitive?"
     F#m                              E6
Down here, where i cannot see so clear
                A                             G#m11
I said "What do i know?"    show me the right way to go


[Chorus]

F#m                            G#m11
And the spies came out of the water
         A                             G#m11
And your feeling so bad 'cause you know
              F#m                   E6
That the spies hide out in every corner
                  A
But you cant touch them no
       Badd9
'Cause they're all spies

C#m11.... A.... B6/9.. Badd9.. B6/9..       Badd9..
                               they're just spies


C#m11.... A.... B6/9.. Badd9.. B6/9.. Badd9..


[Verse 2]

F#m                               E6
I awake to see that no-one is free
          A
We're all fugitive's
            G#m11
Look at the way we live
     F#m                           E6
Down here, I cannot sleep from fear, no
              A
i said "Which way do i turn?"
                 G#m11
Oh, I forget everything i learn


[Chorus]

F#m                            G#m11
And the spies came out of the water
         A                             G#m11
And your feeling so bad 'cause you know
              F#m                   E6
That the spies hide out in every corner
                  A
But you cant touch them no
       Badd9
'Cause they're all spies

C#m11.... A.... B6/9.. Badd9.. B6/9..       Badd9..
                               they're just spies


C#m11.... A.... B6/9.. Badd9.. B6/9.. Badd9..


[Bridge]

B/A             A         E6/B                Badd9
      And if we don't hide here  they're gonna find us
F#m11           G#m13      F#m11              Badd9
      And if we don't hide now  they're gonna catch us where we sleep
B/A             A         E6/B                Badd9
      And if we don't hide here  they're gonna find us
D#m7b5.... G#sus4.. G#add11..

C#m11.... A.... B6/9.. Badd9.. B6/9.. Badd9.. (x2)


[Outro]

     A                G#add11
Spies came out of the water
            B/A                         F#
And your feeling so good 'cause you know
           F#m                       E6
That those spies hide out in every corner
                    A
And they can't touch you no
       Badd9
'Cause they're just spies

C#m11.... A.... B6/9.. Badd9.. B6/9..       Badd9..
                               they're just spies

LAST CHORD: C#m13


4. Sparks

Tuning: EADGBd    Capo 6 fret. (chords relative to capo)

(Chords)

Bbm7=022000                               Dbmaj7=x54000
Bbm/Bbmaj9=x64000                       Bbm7=x75000
Bbm7/Db=x75000                         Ebmadd9=577500
Db9=x87000                                 Db=355400
Gdim=x42000
Gbmaj7=x23000


[Intro] 

In this order   

Bbm7, Bbm/Bbmaj9, Bbm7/Db, 
Gdim,Gmaj7


[Verse 1]

Dbmaj7,Bbm7, Ebmadd9, Db

Chorus same as intro.


[Verse 2]

Did I drive you away
Dbmaj7           Bbm7

I know what you say
Dbmaj7         Bbm7

You say ohhhh
              Ebmadd9

Sing one you know
Dbmaj7                  Db


[Chorus]


singing oooooooooooooooooooooooooooooooooooooooooooooooo
Bbm7     Bbm/Bbmaj9          Bbm7/Db                  
Gmaj7


[Outro]

Well I saw sparks
          Dbmaj7             Bbm7

Repeat until end,  finish on Dbmaj7


5. Yellow
     B                 Badd11                 F#6                 Emaj7
      7 9 0 8 0 0          7 9 0 9 0 0          2 4 4 3 2 0          0 2 0 1 0 0

          G#m                 F#m11
      4 x 4 4 0 0          2 x 2 2 0 1

Gtr I (E A B G B D#) - 'Acoustic'
Gtr II (E A B G B D#) - 'Electric Rhythm'
Gtr III (E A D G B E) - 'Electric Lead'
Gtr IV (E A B G B D#) - 'Electric [spread chords in verse/top part in chorus]'


[Intro]

  Q=87
  B                         Badd11
 4/4
   Gtr I
   E E E E E E E S S   
 E E E E E E S S
e|-0---0-0-0---0-0-0-|-0---0-0---0-0-0-0-|
B|-0-0-0-0-0---0-0-0-|-0---0-0---0-0-0-0-|
G|-8-8-8-8-8---8-8-8-|-8---8-9---9-9-9-9-|
D|-0---0-0-0-0-0-0-0-|-0-0-0-0-0-0-0-0-0-|
A|-9---9-9-9-9-9-9-9-|-9-9-9-9-9-9-9-9-9-|
E|-7---7-7-7-7-7-7-7-|-7-7-7-7-7-7-7-7-7-|


   B                            Badd11
   E E E E  E  E E S S   
  E E E E E  E  S S
e|-0---0-0--0----0-0-0-|-0----0-0---0--0--0-0-|
B|-0-0-0-0--0----0-0-0-|-0----0-0---0--0--0-0-|
G|-8-8-8-8--8----8-8-8-|-8----8-9---9--9--9-9-|
D|-0---0-0--0--0-0-0-0-|-0--0-0-0-0-0--0--0-0-|
A|-9---9-9--9--9-9-9-9-|-9--9-9-9-9-9--9--9-9-|
E|-7---7-7--7--7-7-7-7-|-7--7-7-7-7-7--7--7-7-|
 |
 | Gtr II
 | Q   E E +E  E E S S   B.         
  +E  S S
e|-0-----0-(0)---0-0-0-|-0------------(0)-x-0-|
B|-0-----0-(0)---0-0-0-|-0------------(0)-x-0-|
G|-8-----8-(8)---8-8-8-|-8------------(8)-x-8-|
D|-0---0-0-(0)-0-0-0-0-|-0------------(0)-x-0-|
A|-9---9-9-(9)-9-9-9-9-|-9------------(9)-x-9-|
E|-7---7-7-(7)-7-7-7-7-|-7------------(7)-x-7-|


 Main Riff
  B
  Gtr III
   E     E E E E E E 
   E E E E E E E S  S
e|-7-----7-7-7-7-7-7-7-|-7-7-7-7-7-7-7-7----|
B|-0-----0-0-0-0-0-0-0-|-0-0-0-0-0-0-0-0----|
G|-9b11==9-9-9-9-9-9-9-|-9r9-9-9-9-9-9-9s13-|
D|---------------------|--------------------|
A|---------------------|--------------------|
E|---------------------|--------------------|
 |
 | Gtrs I, II
 | E     E E E E E E E  E E E E E E E E
e|-0-----0-0-0-0-0-0-0-|-0-0-0-0-0-0-0-0----|
B|-0-----0-0-0-0-0-0-0-|-0-0-0-0-0-0-0-0----|
G|-8-----8-8-8-8-8-8-8-|-8-8-8-8-8-8-8-8----|
D|-0-----0-0-0-0-0-0-0-|-0-0-0-0-0-0-0-0----|
A|-9-----9-9-9-9-9-9-9-|-9-9-9-9-9-9-9-9----|
E|-7-----7-7-7-7-7-7-7-|-7-7-7-7-7-7-7-7----|


   F#6
    E      E  E  E  E  E  E E    E  E  E  E  E  E  E E
e|-11-----11-11-11-11-11-11-11-|--------------------------|
B|--0------0--0--0--0--0--0--0-|--0--0--0--0--0--0--0--0--|
G|-13b15==13-13-13-13-13-13-13-|-13r13-13-13-13-13-13-13--|
D|-----------------------------|--------------------------|
A|-----------------------------|--------------------------|
E|-----------------------------|--------------------------|
 |
 |  E      E  E  E  E  E  E E    E  E  E  E  E  E  E E
e|--0------0--0--0--0--0--0--0-|--0--0--0--0--0--0--0--0--|
B|--2------2--2--2--2--2--2--2-|--2--2--2--2--2--2--2--2--|
G|--3------3--3--3--3--3--3--3-|--3--3--3--3--3--3--3--3--|
D|--4------4--4--4--4--4--4--4-|--4--4--4--4--4--4--4--4--|
A|--4------4--4--4--4--4--4--4-|--4--4--4--4--4--4--4--4--|
E|--2------2--2--2--2--2--2--2-|--2--2--2--2--2--2--2--2--|


   Emaj7
   E    E E E E E E 
   E E E E E E E S S
e|-2----2-2-2-2-2-2-2-|-2-2-2-2-2-2-2-2---|
B|-0----0-0-0-0-0-0-0-|-0-0-0-0-0-0-0-0---|
G|-4b6==4-4-4-4-4-4-4-|-4r4-4-4-4-4-4-4s9-|
D|--------------------|-------------------|
A|--------------------|-------------------|
E|--------------------|-------------------|
 |
 | E    E E E E E E E  E E E E E E E E
e|-0----0-0-0-0-0-0-0-|-0-0-0-0-0-0-0-0---|
B|-0----0-0-0-0-0-0-0-|-0-0-0-0-0-0-0-0---|
G|-1----1-1-1-1-1-1-1-|-1-1-1-1-1-1-1-1---|
D|-0----0-0-0-0-0-0-0-|-0-0-0-0-0-0-0-0---|
A|-2----2-2-2-2-2-2-2-|-2-2-2-2-2-2-2-2---|
E|-0----0-0-0-0-0-0-0-|-0-0-0-0-0-0-0-0---|


   B
   E     E E E E E E E  E E E E E E E E
e|-7-----7-7-7-7-7-7-7-|-7-7-7-7-7-7-7-7--|
B|-0-----0-0-0-0-0-0-0-|-0-0-0-0-0-0-0-0--|
G|-9b11==9-9-9-9-9-9-9-|-9r9-9-9-9-9-9-9--|
D|---------------------|------------------|
A|---------------------|------------------|
E|---------------------|------------------|
 |
 | E     E E E E E E E  E E E E E E E E
e|-0-----0-0-0-0-0-0-0-|-0-0-0-0-0-0-0-0--|
B|-0-----0-0-0-0-0-0-0-|-0-0-0-0-0-0-0-0--|
G|-8-----8-8-8-8-8-8-8-|-8-8-8-8-8-8-8-8--|
D|-0-----0-0-0-0-0-0-0-|-0-0-0-0-0-0-0-0--|
A|-9-----9-9-9-9-9-9-9-|-9-9-9-9-9-9-9-9--|
E|-7-----7-7-7-7-7-7-7-|-7-7-7-7-7-7-7-7--|


[Verse 1]

  B                                 F#6
  Gtrs I, II
   Q  E E Q  E E   E E E EE E E E   Q  E E Q  EE   Q  E E E E E E
e|-0--0---0--0-0-|-0---0-0-0---0-0-|-0--0---0--0---|-0--0---0---0---|
B|-0--0---0--0-0-|-0---0-0-0---0-0-|-2--2---2--2---|-2--2---2---2---|
G|-8--8---8--8-8-|-8-8-8-8-8---8-8-|-3--3---3--3-3-|-3--3---3---3-3-|
D|-0--0-0-0--0-0-|-0-0-0-0-0-0-0-0-|-4--4-4-4--4-4-|-4--4-4-4-4-4-4-|
A|-9--9-9-9--9-9-|-9-9-9-9-9-9-9-9-|-4--4-4-4--4---|-4--4-4-4-4-4-4-|
E|-7--7-7-7--7-7-|-7-7-7-7-7-7-7-7-|-2--2-2-2--2---|-2--2-2-2-2-2-2-|


[Verse 2]

[on repeat]
                                      $
   Emaj7                          B
   Q  E E E E E E   E EE E E E E E    Q  E EQ  E E   E E E E E E E E
e|----0---0---0---|-----0-------0---|--0--0---0--0-0-|-0---0-0-0---0-0-|
B|----0---0---0---|-0---0---0---0---|--0--0---0--0-0-|-0---0-0-0---0-0-|
G|-1--1-1-1---1-1-|-1---1-1-1-1-1-8-|--8--8---8--8-8-|-8-8-8-8-8---8-8-|
D|-0--0-0-0-0-0-0-|-0-0-0-0-0-0-0-0-|--0--0-0-0--0-0-|-0-0-0-0-0-0-0-0-|
A|-2--2-2-2-2-2-2-|-2-2-2-2-2-2-2-9-|--9--9-9-9--9-9-|-9-9-9-9-9-9-9-9-|
E|-0--0-0-0-0-0-0-|-0-0-0-0-0-0-0-7-|--7--7-7-7--7-7-|-7-7-7-7-7-7-7-7-|
 |
 | Gtr IV
 | W                W                  W               W
e|----------------|-----------------|-^8-------------|-----------------|
B|----------------|-----------------|-^7-------------|-----------------|
G|----------------|-----------------|-^8-------------|-----------------|
D|----------------|-----------------|----------------|-----------------|
A|----------------|-----------------|----------------|-----------------|
E|----------------|-----------------|----------------|-----------------|


   F#6                               Emaj7                            B
    Q  E E Q  E E   Q  E E EE E E     Q  E E E E EE   E E E E E E E E
e|--0--0---0--0---|-0--0---0---0---|------0---0---0---|-----0-------0---|
B|--2--2---2--2---|-2--2---2---2---|------0---0---0---|-0---0---0---0---|
G|--3--3---3--3-3-|-3--3---3---3-3-|---1--1-1-1---1-1-|-1---1-1-1-1-1-8-|
D|--4--4-4-4--4-4-|-4--4-4-4-4-4-4-|---0--0-0-0-0-0-0-|-0-0-0-0-0-0-0-0-|
A|--4--4-4-4--4---|-4--4-4-4-4-4-4-|---2--2-2-2-2-2-2-|-2-2-2-2-2-2-2-9-|
E|--2--2-2-2--2---|-2--2-2-2-2-2-2-|---0--0-0-0-0-0-0-|-0-0-0-0-0-0-0-7-|
 |
 |  W               W                  W                W
e|-^7-------------|----------------|-^12--------------|-----------------|
B|-^4-------------|----------------|-^12--------------|-----------------|
G|-^6-------------|----------------|-^13--------------|-----------------|
D|----------------|----------------|------------------|-----------------|
A|----------------|----------------|------------------|-----------------|
E|----------------|----------------|------------------|-----------------|


                                         F#6
    Q    E  E Q  E E   E E EE E E E E    Q    E  E Q  EE   Q  E E E E E E
e|--0----0----0--0-0-|-0---0-0-0---0-0-|--0----0----0--0---|-0--0---0---0---|
B|--0----0----0--0-0-|-0---0-0-0---0-0-|--2----2----2--2---|-2--2---2---2---|
G|--8----8----8--8-8-|-8-8-8-8-8---8-8-|--3----3----3--3-3-|-3--3---3---3-3-|
D|--0----0--0-0--0-0-|-0-0-0-0-0-0-0-0-|--4----4--4-4--4-4-|-4--4-4-4-4-4-4-|
A|--9----9--9-9--9-9-|-9-9-9-9-9-9-9-9-|--4----4--4-4--4---|-4--4-4-4-4-4-4-|
E|--7----7--7-7--7-7-|-7-7-7-7-7-7-7-7-|--2----2--2-2--2---|-2--2-2-2-2-2-2-|
 |
 |  Q    H.            W                  Q    H.            W
e|-^8--^(8)----------|-----------------|-^7--^(7)----------|----------------|
B|-^7--^(7)----------|-----------------|-^4--^(4)----------|----------------|
G|-^8--^(8)----------|-----------------|-^6--^(6)----------|----------------|
D|-------------------|-----------------|-------------------|----------------|
A|-------------------|-----------------|-------------------|----------------|
E|-------------------|-----------------|-------------------|----------------|


   Emaj7                                B                     Badd11  B
     Q     E  E E E E E   EE E E E E E E   E EE E E E E E   E E E E E E E E
e|---------0----0---0---|-----0-------0---|-0-0-0-0-0-0-0-0-|-0-0-0-0-0-0-0-0-|
B|---------0----0---0---|-0---0---0---0---|-0-0-0-0-0-0-0-0-|-0-0-0-0-0-0-0-0-|
G|---1-----1--1-1---1-1-|-1---1-1-1-1-1-8-|-8-8-8-8-8-8-8-8-|-9-9-9-9-8-8-8-8-|
D|---0-----0--0-0-0-0-0-|-0-0-0-0-0-0-0-0-|-0-0-0-0-0-0-0-0-|-0-0-0-0-0-0-0-0-|
A|---2-----2--2-2-2-2-2-|-2-2-2-2-2-2-2-9-|-9-9-9-9-9-9-9-9-|-9-9-9-9-9-9-9-9-|
E|---0-----0--0-0-0-0-0-|-0-0-0-0-0-0-0-7-|-7-7-7-7-7-7-7-7-|-7-7-7-7-7-7-7-7-|
 |
 |   Q     H.             W                 W                 W
e|-^12--^(12)-----------|-----------------|-----------------|-----------------|
B|-^12--^(12)-----------|-----------------|-----------------|-----------------|
G|-^13--^(13)-----------|-----------------|-----------------|-----------------|
D|----------------------|-----------------|-----------------|-----------------|
A|----------------------|-----------------|-----------------|-----------------|
E|----------------------|-----------------|-----------------|-----------------|


[Chorus]

    Emaj7
    Gtr IV
      E  E  E  E  E   E  E  E
e||--17-17-17-17-17--17-17-17-|
B||o--------------------------|
G||--16-16-16-16-16--16-16-16-|
D||---------------------------|
A||o--------------------------|
E||---------------------------|
 |
 |   Gtr I
 |    E  E  E  E +E   E  E  E
e||---0-----0--0-(0)-----0--0-|
B||o--0-----0--0-(0)-----0--0-|
G||---1--1--1--1-(1)--1--1--1-|
D||---0--0--0--0-(0)--0--0--0-|
A||o--2--2--2--2-(2)--2--2--2-|
E||---0--0--0--0-(0)--0--0--0-|


   G#m         F#6                Emaj7
    E  E  E  E  E  E  E  S 
 S  3x  B      B           W
e|-17-17-17-17-17-15-15-15S17--||-17----------------|------|
B|----------------------------o||-------------------|------|
G|-16-16-16-16-16-15-15-15S16--||-16----------------|------|
D|-----------------------------||-------------------|------|
A|----------------------------o||-------------------|------|
E|-----------------------------||-------------------|------|

    E  E  E  E  E  E  E  
     3x  Q  E E E E E S S   W
e|--0-----0--0-----0--0--------||--0--0-0-----0-0-0-|-0----|
B|--0-----0--0-----0--0-------o||--0--0-0-----0-0-0-|-0----|
G|--4--4--4--4--3--3--3--3-----||--1--1-1-----1-1-1-|-1----|
D|--4--4--4--4--4--4--4--4-----||--0--0-0-0-0-0-0-0-|-0----|
A|--------------4--4--4--4----o||--2--2-2-2-2-2-2-2-|-2----|
E|--4--4--4--4--2--2--2--2-----||--0--0-0-0-0-0-0-0-|-0----|


(Main Riff)

  B
  Gtr III
   E     E E E E E E 
   E E E E E E E S  S
e|-7-----7-7-7-7-7-7-7-|-7-7-7-7-7-7-7-7----|
B|-0-----0-0-0-0-0-0-0-|-0-0-0-0-0-0-0-0----|
G|-9b11==9-9-9-9-9-9-9-|-9r9-9-9-9-9-9-9s13-|
D|---------------------|--------------------|
A|---------------------|--------------------|
E|---------------------|--------------------|
 |
 | Gtrs I, II
 | E     E E E E E E E  E E E E E E E E
e|-0-----0-0-0-0-0-0-0-|-0-0-0-0-0-0-0-0----|
B|-0-----0-0-0-0-0-0-0-|-0-0-0-0-0-0-0-0----|
G|-8-----8-8-8-8-8-8-8-|-8-8-8-8-8-8-8-8----|
D|-0-----0-0-0-0-0-0-0-|-0-0-0-0-0-0-0-0----|
A|-9-----9-9-9-9-9-9-9-|-9-9-9-9-9-9-9-9----|
E|-7-----7-7-7-7-7-7-7-|-7-7-7-7-7-7-7-7----|


   F#6
    E      E  E  E  E  E  E E    E  E  E  E  E  E  E E
e|-11-----11-11-11-11-11-11-11-|--------------------------|
B|--0------0--0--0--0--0--0--0-|--0--0--0--0--0--0--0--0--|
G|-13b15==13-13-13-13-13-13-13-|-13r13-13-13-13-13-13-13--|
D|-----------------------------|--------------------------|
A|-----------------------------|--------------------------|
E|-----------------------------|--------------------------|
 |
 |  E      E  E  E  E  E  E E    E  E  E  E  E  E  E E
e|--0------0--0--0--0--0--0--0-|--0--0--0--0--0--0--0--0--|
B|--2------2--2--2--2--2--2--2-|--2--2--2--2--2--2--2--2--|
G|--3------3--3--3--3--3--3--3-|--3--3--3--3--3--3--3--3--|
D|--4------4--4--4--4--4--4--4-|--4--4--4--4--4--4--4--4--|
A|--4------4--4--4--4--4--4--4-|--4--4--4--4--4--4--4--4--|
E|--2------2--2--2--2--2--2--2-|--2--2--2--2--2--2--2--2--|


   Emaj7
   E    E E E E E E 
   E E E E E E E S S
e|-2----2-2-2-2-2-2-2-|-2-2-2-2-2-2-2-2---|
B|-0----0-0-0-0-0-0-0-|-0-0-0-0-0-0-0-0---|
G|-4b6==4-4-4-4-4-4-4-|-4r4-4-4-4-4-4-4s9-|
D|--------------------|-------------------|
A|--------------------|-------------------|
E|--------------------|-------------------|
 |
 | E    E E E E E E E  E E E E E E E E
e|-0----0-0-0-0-0-0-0-|-0-0-0-0-0-0-0-0---|
B|-0----0-0-0-0-0-0-0-|-0-0-0-0-0-0-0-0---|
G|-1----1-1-1-1-1-1-1-|-1-1-1-1-1-1-1-1---|
D|-0----0-0-0-0-0-0-0-|-0-0-0-0-0-0-0-0---|
A|-2----2-2-2-2-2-2-2-|-2-2-2-2-2-2-2-2---|
E|-0----0-0-0-0-0-0-0-|-0-0-0-0-0-0-0-0---|


                                     D.S.
   B
   E     E E E E E E E  E E E E E E E E
e|-7-----7-7-7-7-7-7-7-|-7-7-7-7-7-7-7-7--|
B|-0-----0-0-0-0-0-0-0-|-0-0-0-0-0-0-0-0--|
G|-9b11==9-9-9-9-9-9-9-|-9r9-9-9-9-9-9-9--|
D|---------------------|------------------|
A|---------------------|------------------|
E|---------------------|------------------|
 |
 | E     E E E E E E E  E E E E E E E E
e|-0-----0-0-0-0-0-0-0-|-0-0-0-0-0-0-0-0--|
B|-0-----0-0-0-0-0-0-0-|-0-0-0-0-0-0-0-0--|
G|-8-----8-8-8-8-8-8-8-|-8-8-8-8-8-8-8-8--|
D|-0-----0-0-0-0-0-0-0-|-0-0-0-0-0-0-0-0--|
A|-9-----9-9-9-9-9-9-9-|-9-9-9-9-9-9-9-9--|
E|-7-----7-7-7-7-7-7-7-|-7-7-7-7-7-7-7-7--|


[Middle]

     B                                          F#6
     E     E E E E E E E  E E E E E E E S  S 
   E      E  E  E  E  E  E  E
e||--7-----7-7-7-7-7-7-7-|-7-7-7-7-7-7-7-7----|-11-----11-11-11-11-11-11-11-|
B||o-0-----0-0-0-0-0-0-0-|-0-0-0-0-0-0-0-0----|--0------0--0--0--0--0--0--0-|
G||--9b11==9-9-9-9-9-9-9-|-9r9-9-9-9-9-9-9s13-|-13b15==13-13-13-13-13-13-13-|
D||----------------------|--------------------|-----------------------------|
A||o---------------------|--------------------|-----------------------------|
E||----------------------|--------------------|-----------------------------|
 |
 |   E     E E E E E E E  E E E E E E E E      E      E  E  E  E  E  E  E
e||--0-----0-0-0-0-0-0-0-|-0-0-0-0-0-0-0-0----|--0------0--0--0--0--0--0--0-|
B||o-0-----0-0-0-0-0-0-0-|-0-0-0-0-0-0-0-0----|--2------2--2--2--2--2--2--2-|
G||--8-----8-8-8-8-8-8-8-|-8-8-8-8-8-8-8-8----|--3------3--3--3--3--3--3--3-|
D||--0-----0-0-0-0-0-0-0-|-0-0-0-0-0-0-0-0----|--4------4--4--4--4--4--4--4-|
A||o-9-----9-9-9-9-9-9-9-|-9-9-9-9-9-9-9-9----|--4------4--4--4--4--4--4--4-|
E||--7-----7-7-7-7-7-7-7-|-7-7-7-7-7-7-7-7----|--2------2--2--2--2--2--2--2-|


                             Emaj7
    E  E  E  E  E  E  E  
   E    E E E E E E 
   E E E E E E E S S
e|-------------------------|-2----2-2-2-2-2-2-2-|-2-2-2-2-2-2-2-2-----||
B|--0--0--0--0--0--0--0--0-|-0----0-0-0-0-0-0-0-|-0-0-0-0-0-0-0-0----o||
G|-13r13-13-13-13-13-13-13-|-4b6==4-4-4-4-4-4-4-|-4r4-4-4-4-4-4-4s9---||
D|-------------------------|--------------------|---------------------||
A|-------------------------|--------------------|--------------------o||
E|-------------------------|--------------------|---------------------||
 |
 |  E  E  E  E  E  E  E  E  E    E E E E E E E  E E E E E E E E
e|--0--0--0--0--0--0--0--0-|-0----0-0-0-0-0-0-0-|-0-0-0-0-0-0-0-0-----||
B|--2--2--2--2--2--2--2--2-|-0----0-0-0-0-0-0-0-|-0-0-0-0-0-0-0-0----o||
G|--3--3--3--3--3--3--3--3-|-1----1-1-1-1-1-1-1-|-1-1-1-1-1-1-1-1-----||
D|--4--4--4--4--4--4--4--4-|-0----0-0-0-0-0-0-0-|-0-0-0-0-0-0-0-0-----||
A|--4--4--4--4--4--4--4--4-|-2----2-2-2-2-2-2-2-|-2-2-2-2-2-2-2-2----o||
E|--2--2--2--2--2--2--2--2-|-0----0-0-0-0-0-0-0-|-0-0-0-0-0-0-0-0-----||


[Outro]

  B                                         F#m11
  Gtr II
   >
   B       B            W                    W
e|-0------------------|--------------------|---------------------|
B|-7------------------|--------------------|---------------------|
G|-8------------------|--------------------|---------------------|
D|-0------------------|--------------------|---------------------|
A|-9------------------|--------------------|---------------------|
E|-7------------------|--------------------|---------------------|
 |
 | Gtr I
 | Q  E E +E  E E S S   Q  E 
 +E  E E S S   E E E E 
  E E S S
e|-0--0-0-(0)---0-0-0-|-0--0-0-(0)---0-0-0-|-1---1-1-(1)---1-1-1-|
B|-0--0-0-(0)---0-0-0-|-0--0-0-(0)---0-0-0-|-0---0-0-(0)---0-0-0-|
G|-8--8-8-(8)---8-8-8-|-8--8-8-(8)---8-8-8-|-2-2-2-2-(2)-2-2-2-2-|
D|-0--0-0-(0)-0-0-0---|-0--0-0-(0)-0-0-0---|-2-2-2-2-(2)-2-2-2---|
A|-9--9-9-(9)-9-9-9---|-9--9-9-(9)-9-9-9---|---------------------|
E|-7--7-7-(7)-7-7-7---|-7--7-7-(7)-7-7-7---|-2---2-2-(2)-2-2-2---|


                       Emaj7
  Gtr I
   Q  E E +E  E E S S    W          W
e|----1-1-(1)---1-0-0-|-^0--------|------*|
B|----0-0-(0)---0-0-0-|-^0--------|------*|
G|----2-2-(2)-2-2-0-0-|-^1--------|------*|
D|-2--2-2-(2)-2-2-0-0-|-^0--------|------*|
A|--------------------|-^2--------|------*|
E|-2--2-2-(2)-2-2-----|-^0--------|------*|


Duration Legend
---------------
W - whole; H - half; Q - quarter; E - 8th; S - 16th; T - 32nd; X - 64th; a - acciaccatura
+ - note tied to previous; . - note dotted; .. - note double dotted
Uncapitalized letters represent notes that are staccato (1/2 duration)
Irregular groupings are notated above the duration line
Duration letters will always appear directly above the note/fret number it represents the
duration for.  Duration letters with no fret number below them represent rests.  Multi-
bar rests are notated in the form Wxn, where n is the number of bars to rest for.  Low
melody durations appear below the staff

Tablature Legend
----------------
 h   - hammer-on
 p   - pull-off
 b   - bend
 pb  - pre-bend
 r   - bend release (if no number after the r, then release immediately)
 /\  - slide into or out of (from/to "nowhere")
 s   - legato slide
 S   - shift slide
  - natural harmonic
[n]  - artificial harmonic
n(n) - tapped harmonic
 ~   - vibrato
 tr  - trill
 T   - tap
 TP  - trem. picking
 PM  - palm muting
\n/  - tremolo bar dip; n = amount to dip
 \n  - tremolo bar down
 n/  - tremolo bar up
/n\  - tremolo bar inverted dip
 =   - hold bend; also acts as connecting device for hammers/pulls
 <>  - volume swell (louder/softer)
 x   - on rhythm slash represents muted slash
 o   - on rhythm slash represents single note slash

Misc Legend
-----------
 |  - bar
||  - double bar
||o - repeat start
o|| - repeat end
*|  - double bar (ending)
 :  - bar (freetime)
 $  - Segno
 &  - Coda
Tempo markers -  = BPM(8/16=s8/s16), where s8 = swing 8ths, s16 = swing 16ths


6. Trouble

G  Em   Bm
oh no i see

F               Am              G
a spider web is tangled up with me

G     Em      Bm
and I lost my head

F                      Am                G
and thought of all the stupid things i’d said


G  Em        Bm
oh no what’s this

F                    Am                   G
a spider web and i’m caught in the middle

G    Em        Bm
so I turned to run and

F                  Am                G
thought of all the stupid things i’d done


A                                 Em
and ah i never meant to cause you trouble

A                          Em
ah i never meant to do you wrong

A                            Em
ah well if I ever caused you trouble

A                                  Em
then oh no I never meant to do you harm.


G  Em   Bm
oh no i see

F                     Am               G
a spider web and it’s me in the middle

G    Em        Bm
so i twist and turn

F                Am               G
but here am i in my little bubble

A                                         Em
singing out ah i never meant to cause you trouble

A                          Em
ah i never meant to do you wrong

A                                Em
and ah well if I ever caused you trouble

A                                  Em
then oh no I never meant to do you harm.


Em       F#m    G   F#m Em
and they spun a web for me

Em   F#m    G   F#m Em
they spun a web for me

Em       F#m    G   F#m Em
and they spun a web for me.


7. Parachutes

[Intro/Verse]

B Abm B Abm F#m E


      B       Abm         B       Abm         F#m
e|-------------------|-------------------|------------------|
B|-------------------|-------------------|------------------|
G|----8--8----4--4---|----8--8----4--4---|---2---2---2---2--|
D|-----9--9----6--6--|-----9--9----6--6--|----4-------4-----|
A|------9-------6----|------9-------6----|-----4-------4----|
e|--7-------4--------|--7-------4--------|--2-------2-------|

      E
e|------------------|
B|------------------|
G|---1--1----1---1--|
D|----2--2----2-----|
A|-----2-------2----|
e|--0-------0-------|


[Verse 1]

B                 Abm
Yeah my head is a stormy haze
B                          Abm          F#m    E
  I'll be round; I'll be loving you always, always
B                Abm
Here I am and I take my time
B                Abm                  F#m    E
  Here I am and I'll wait in line always, always


(Chords)

      B    Abm   F#m    E
e|--7--|--4--|--2--|--0--|
B|--7--|--4--|--2--|--0--|
G|--8--|--4--|--2--|--1--|
D|--9--|--6--|--4--|--2--|
A|--9--|--6--|--4--|--2--|
e|--7--|--4--|--2--|--0--|


8. High Speed

GUITAR 1 (Rhythm) - DGDGBD (Open G)

GUITAR 2 (Lead)   - EADGBE (Standard)


CHORDS: For rhythm guitar


 Bb6/Eb   = 133o1o |
 Csus2/F  = 355o3o | x = string not played
 Gsus2    = xo77oo | o = open string
 Ebmaj7   = x87o8o |
 Ebmaj7*  = x88o8o |
 Ebmaj7** = x88o6o |
 Bb6      = x33o3o |
 Cadd9    = x55o5o |


[Intro]

Chords for GUITAR 1 written above. The lead is played by GUITAR
2 in standard

      Bb6/Eb          Csus2/F             
           Csus2/F
e|------6-6-5-5-3-3-----8-8-6-6-5-5--|------6-6-5-5-3-3-----8-8-6-6-5-5--|
B|-----------------------------------|-----------------------------------|
G|--3-3-------------5-5--------------|--3-3-------------5-5--------------|
D|-----------------------------------|-----------------------------------|
A|-----------------------------------|-----------------------------------|
e|-----------------------------------|-----------------------------------|

      Bb6/Eb          Csus2/F             
           Csus2/F
e|------6-6-5-5-3-3-----8-8-6-6-5-5--|------6-6-5-5-3-3-----8-8-6-6-5-5--8---|
B|-----------------------------------|-----------------------------------8---|
G|--3-3-------------5-5--------------|--3-3-------------5-5--------------5---|
D|-----------------------------------|---------------------------------------|
A|-----------------------------------|---------------------------------------|
e|-----------------------------------|---------------------------------------|

      Gsus2
e|--------------------------------------------|
B|------6---63---31---1-----------------------|
G|----7---7-----4-----2---0-----------0-0-----|
D|-------------------------------0--2---------|
A|---------------------------0h2--------------|
e|--------------------------------------------|(x2)


[Verse 1]

 Ebmaj7                Gsus2
 Can anybody fly this thing?

      Gsus2
e|-------------------------------------------|
B|------6---63---31---1----------------------|
G|----7---7-----4-----2---0-----------0-0----|
D|-------------------------------0--2--------|
A|---------------------------0h2-------------|
e|-------------------------------------------|

 Ebamj7                         Ebmaj7* Ebmaj7**   Gsus2
 Before my head explodes, Before my head starts to ring,

      Gsus2
e|-------------------------------------------|
B|------6---63---31---1----------------------|
G|----7---7-----4-----2---0-----------0-0----|
D|-------------------------------0--2--------|
A|---------------------------0h2-------------|
e|-------------------------------------------|

 Ebmaj7*                 Ebmaj7**         Gsus2
 We've been living life, inside a bubble,

      Gsus2
e|-------------------------------------------|
B|------6---63---31---1----------------------|
G|----7---7-----4-----2---0-----------0-0----|
D|-------------------------------0--2--------|
A|---------------------------0h2-------------|
e|-------------------------------------------|

 Bb6                                 Cadd9   Gsus2
     We've been living life inside a bubble,

      Gsus2
e|-----------------------------------------------|
B|------6---6-3---3-1---1--------12----12----------|
G|----7---7-----4-----2---0--/12----12----12-----|
D|-----------------------------------------------|
A|-----------------------------------------------|
e|-----------------------------------------------|


[Chorus]


 Bb6/Eb              Csus2/F               Bb6/Eb
   And confidence in you, is confidence in me,
                  Csus2/F  Gadd9
 Is confidence in hi - igh speed

      Bb6/Eb                Csus2/F                   Bb6/Eb
  Csus2/F
e|-----------------------------------------------|-----------------------------------------------|
B|----3----------3-----------5----------5--------|----3----------3-----------5----------5--------|
G|------0---0------0---0-------0---0------0---0--|------0---0------0---0-------0---0------0---0--|
D|--3-----3----3-----3-----5----------5-----5----|--3-----3----3-----3-----5----------5-----5----|
A|-----------------------------------------------|-----------------------------------------------|
e|-----------------------------------------------|-----------------------------------------------|


[Verse 2]

Similar lead but with a few notes played over the Ebmaj7's, they
should be easy to work out

 Ebmaj7                Gsus2
 Can anybody stop this thing?
 Ebmaj7                         Ebmaj7* Ebmaj7**   Gsus2
 Before my head explodes, before my head starts to ring,
  Ebamj7*                Ebmaj7**         Gsus2
 We've been living life inside a bubble,
 Bb6                             Cadd9  Gsus2
 We've been living life inside a bubble,

 
[Chorus 2]

Again similar lead

 Bb6/Eb              Csus2/F               Bb6/Eb
   And confidence in you, is confidence in me,
                  Csus2/F  Gadd9
 Is confidence in hi - igh speed, In high speed, high speed

 In high speed, high speed

 
[Outro]

Play the intro riff over this

 Bb6/Eb             Csus2/F
 And high speed you want,

 High speed you want,
                Cadd9
 High speed you want,
                      Gsus2
 High speed you want,


*Gsus2 held till fade*


9. We Never Change


(Chords used)

F#m11  E6   Bmadd11  Asus2   C#m7  Dsus2   
 B
  0     0      0       0      0      0       0    2
  0     2      3       5      5      3       2    4
  2     1      4       4      4      2       2    4
  4     2      4       2      2      0       0    4
  4     2      2       0      4      x       x    2
  2*    0      x       x      x      x       x    x

* fret note w/ left thumb

6/8 time (mostly)


| F#m11 | .. | E6 | .. | F#m11 | .. | E6 | ..           |
                                           I wanna live

| F#m11 | ..       | E6 | .. | F#m11 | .. | E6 | .. | (x2)
   life  etc

| Bmadd11 | F#m11 |(9/8) .. |(6/8) E6 | .. |
 I wanna fly...

| Asus2 | .. | C#m7 | .. |
We never change, do we?
We never learn, do we?

| Bmadd11 | F#m11 |(9/8) ..     |(6/8) E6 | .. |
I wanna     live    in a wooden  house
 Making...


[Outro]

| Bmadd11 | F#m11    | E6     | Bmadd11    |
 I wanna   live in a  wooden   house where
| Bmadd11    | F#m11            |Dsus2 / Dmaj9 | B  |
 making more  friends would be   ea_____________sy__
| Bmadd11 | F#m11         | E6       | Bmadd11    |
 I wanna   live where the  sun comes  down

Often, playing an F#m11, this appears:

E|(0)-(0)-|
B|(0)-(0)-|
G|-2--(2)-|
D|-4--(4)-|
A|-4--(4)-|
E|-0-h-2--|

10. Everythings not lost
Tab notes:
-Rhythm guitar arranged for a piano part.
-Lead guitar measures in parentheses
-Rhythm and lead guitar measures separated by one space
-Lead guitar uses slide
-Some notes on 6th string played with thumb
-Let these notes ring when you play them


[Verse 1]


         When I counted....demons

e|--0------------------------------------------------|
B|--0-----------0-----------3------------------------|
G|--1-----------1-----------3------------------------|
D|--2-----------3-----------2------------(Repeat 3x)-|
A|---------------------------------------------------|
E|--0-----------1-----------2------------------------|

      Drove the other ones away

e|--0-----------------------0------------------------|
B|--2-----------------------0---------------------0--|
G|--2-----------------------1-------------------1----|
D|--------------------------2-----------------2------|
A|--2-----------------------2------------------------|
E|---------------------------------------------------|

      So if you ever.....neglected

e|--0-----------0-----------0-----------------0------\-|
B|--0-----------0-----------0-----------3-------3------| \
G|--1-----------1-----------1-----------3---------3-0--|  \
D|--2-----------1-----------0-----------2--------------|   \
A|--2--------------------------------------------------|
E|--------------------------------------2--------------|  Rhythm and lead
                                                       played together
e|---------------------------------------------------|
B|-5-------------------------------------------------|
G|---------------------------------------------------|   /
D|---------------------------------------------------|  /
A|---------------------------------------------------| /
e|---------------------------------------------------|/

         If you think all...lost

e|--0-----------0-----------0-----------0---------0--|
B|--0-----------0-----------0-----------0------2--0--|
G|--1-----------1-----------1-----------2------2--4--|
D|----2---------1-----------0----------------2-------|
A|--------------------------------------4--4---------|
E|---------------------------------------------------|

e|--------------------------------------------------|
B|-5------------------------7////8-----5------------|
G|--------------------------------------------------|
D|--------------------------(slow slide/bend)-------|
A|--------------------------------------------------|
e|--------------------------------------------------|

       I'll be counting..

e|--0-----------0-----------0-----------0------------|
B|--0-----------0-----------0-----------0------------|
G|--1-----------1-----------1-----------2------------|
D|--2-----------1-----------0------------------------|
A|--------------------------------------4------------|
E|---------------------------------------------------|

e|--------------------------------------------------|
B|-------9-----------9-----------12----14-----------|
G|-9--9-----9--11-11----11-13-13----13-14-----------|
D|--------------------------------------------------|
A|--------------------------------------------------|
e|--------------------------------------------------|

          hoping everything..

e|--------------------0-----0-------------------------|
B|--------------------2-----0-------------------------|
G|--2-----------------2-----1-------------------------|
D|--2-----------------------2-------------------------|
A|--4-----------------2-------------------------------|
E|--------------------------0-------------------------|

e|-------------------------12-12-12-12-12-12--------|
B|-------------------------------------------9-11---|
G|-6------------------------------------------------|
D|--------------------------------------------------|
A|--------------------------------------------------|
e|--------------------------------------------------|


[Instrumental Verse](4x)

e|--0-----0-----0-----------0-----0-----0-------------|
B|--0-----0-----0-----------3-----3-----2-------------|
G|--1-----1-----1-----------4-----4-----2-------------|
D|--2-----2-----0-----------0-----0-----0-------------|
A|--2-----------2-------------------------------------|
E|--0-----------0-----------3-----------2-------------|

e|-12-12-12-12-12-12-------12-12-12-12-12-12-[16,17]) [2nd time around]
B|-------------------9-11--------------------9-11---|
G|--------------------------------------------------|
D|--------------------------------------------------|
A|--------------------------------------------------|
e|--------------------------------------------------|


[Verse]

       When you thought

e|-------------------------------------------0-------|
B|--0-----------0-----------3------------------3-----|
G|--1-----------1-----------3--------------------3---|
D|--2-----------3-----------2----------------------0-|
A|--2------------------------------------------------|
E|--0-----------1-----------2------------------------|

e|--0----------------------------------------0--------|  \
B|--0-----------0-----------3------------------3------|   \
G|--1-----------1-----------3--------------------3----|    \
D|----2---------3-----------2----------------------0--|
A|----------------------------------------------------|
E|--0-----------1-----------2-------------------------|
                                                        Play 2x
e|-------------11----------12-----------------------|  omit 0-3-3-3-|
B|-9----------------------------------------------------------------|  riff 2nd time
G|------------------------------------------------------------------|
D|------------------------------------------------------------------|   /
A|------------------------------------------------------------------|  /
e|------------------------------------------------------------------| /

     don't you let it drag you down

e|--0-----------------------0------------------------|
B|--2-----------------------0---------------------0--|
G|--2-----------------------1-------------------1----|
D|--------------------------2-----------------2------|
A|--2------------------------------------------------|
E|--------------------------0------------------------|

         if you ever feel..

e|--0-----------0-----------0-----------------0-------|
B|--0-----------0-----------0-----------3-------3-----|
G|--1-----------1-----------1-----------3---------3-0-|
D|--2-----------1-----------0-----------2-------------|
A|--2-------------------------------------------------|
E|--------------------------------------2-------------|

e|--------------------------------------------------|
B|-5------------------------------------------------|
G|--------------------------------------------------|
D|--------------------------------------------------|
A|--------------------------------------------------|
e|--------------------------------------------------|

         if you think

e|--0-----------0-----------0-----------0---------0--|
B|--0-----------0-----------0-----------0------2--0--|
G|--1-----------1-----------1-----------2------2--4--|
D|----2---------1-----------0----------------2-------|
A|--------------------------------------4--4---------|
E|---------------------------------------------------|

e|--------------------------------------------------|
B|-5-----------------------7////8------5------------|
G|--------------------------------------------------|
D|--------------------------------------------------|
A|--------------------------------------------------|
e|--------------------------------------------------|

        i'll be counting up...

e|--0-----------0-----------0-----------0------------|
B|--0-----------0-----------0-----------0------------|
G|--1-----------1-----------1-----------2------------|
D|--2-----------1-----------0------------------------|
A|--------------------------------------4------------|
E|---------------------------------------------------|

e|--------------------------------------------------|
B|-------9-----------9-----------12----14-----------|
G|-9--9-----9--11-11----11-13-13----13-14-----------|
D|--------------------------------------------------|
A|--------------------------------------------------|
e|--------------------------------------------------|

      hoping everthing's not lost

e|--------------------0-----0-------------------------|
B|--------------------2-----0-------------------------|
G|--2-----------------2-----1-------------------------|
D|--2-----------------------2-------------------------|
A|--4-----------------2-------------------------------|
E|--------------------------0-------------------------|

e|-------------------------12-12-12-12-12-12--------|
B|-------------------------------------------9-11---|
G|-6------------------------------------------------|
D|--------------------------------------------------|
A|--------------------------------------------------|
e|--------------------------------------------------|


[Instrumental Verse](4x)

e|--0-----0-----0-----------0-----0-----0-------------|
B|--0-----0-----0-----------3-----3-----2-------------|
G|--1-----1-----1-----------4-----4-----2-------------|
D|--2-----2-----0-----------0-----0-----0-------------|
A|--2-----------2-------------------------------------|
E|--0-----------0-----------3-----------2-------------|

e|-12-12-12-12-12-12-------12-12-12-12-12-12-[16,17]) [2nd time around]
B|-------------------9-11--------------------9-11---|
G|--------------------------------------------------|
D|--------------------------------------------------|
A|--------------------------------------------------|
e|--------------------------------------------------|


[Bridge]

         If you ever feel..
         if you think that..

e|--0-------------------------------------------------|
B|--0-------------------------------------------------|
G|--1-------------------------------------------------|
D|--2-----------1-----------0-----------(Repeat 2x)---|
A|----------------------------------------------------|
E|--0-----------0-----------0-------------------------|

        i'll be counting up...

e|--0-----------------------------------0-------------|
B|--0-----------------------------------0-------------|
G|--1-----------------------------------2-------------|
D|--2-----------1-----------0-------------------------|
A|--------------------------------------4-------------|
E|--0-----------0-----------0-------------------------|

e|--------------------------------------------------|
B|-------9-----------9-----------12----14-----------|
G|-9--9-----9--11-11----11-13-13----13-14-----------|
D|--------------------------------------------------|
A|--------------------------------------------------|
e|--------------------------------------------------|

       hopin everything's not lost

e|--------------------0-----0-------------------------|
B|--------------------2-----0-------------------------|
G|--2-----------------2-----1-------------------------|
D|--2-----------------------2-------------------------|
A|--4-----------------2-------------------------------|
E|--------------------------0-------------------------|

e|--------------------------------------------------|
B|--------------------------------------------------|
G|-6------------------------------------------------|
D|--------------------------------------------------|
A|--------------------------------------------------|
e|--------------------------------------------------|


[Outro]

Singin'out oh yea.....

e|--4-----4-----4-----4-----4-----4-----5-----5-------|
B|--0-----0-----0-----0-----0-----0-----0-----0-------|
G|--1-----1-----1-----1-----1-----1-----2-----2-------|
D|--2-----2-----2-----2-----0-----0-------------------|
A|--------------------------------------4-----4-------|
E|----------------------------------------------------|

Repeat 4 times

e|--0-----0-----0-----------0-----0-----0-------------|
B|--0-----0-----0-----------3-----3-----2-------------|
G|--1-----1-----1-----------4-----4-----2-------------|
D|--2-----2-----0-----------0-----0-----0-------------|
A|--2-----------2-------------------------------------|
E|--0-----------0-----------3-----------2-------------|

e|-12-12-12-12-12-12-------12-12-12-12-12-12-[16,17]) [2nd time around]
B|-------------------9-11--------------------9-11---|
G|--------------------------------------------------|
D|--------------------------------------------------|
A|--------------------------------------------------|
e|--------------------------------------------------|

Repeat 4 times

e|--0-----0-----0-----0-----2-----2-----2-----2-------|
B|--0-----0-----0-----0-----3-----3-----3-----3-------|
G|--1-----1-----1-----1-----2-----2-----2-----2-------|
D|--2-----2-----2-----2-----4-----4-----4-----4-------|
A|--2-----2-----2-----2-----2-----2-----2-----2-------|
E|--0-----0-----0-----0-------------------------------|

e|--------------------------------------------------|
B|-0--0--0--0--0--0--0--0--2--2--2--2--2--2--2------|
G|--------------------------------------------------|
D|--------------------------------------------------|
A|--------------------------------------------------|
e|--------------------------------------------------|

e|--4-----4-----4-----4-----4-----4-----4-----4-------|
B|--2-----2-----2-----2-----2-----2-----2-----2-------|
G|--2-----2-----2-----2-----2-----2-----2-----2-------|
D|----------------------------------------------------|
A|----------------------------------------------------|
E|--2-----2-----2-----2-----2-----2-----2-----2-------|

e|--------------------------------------------------|
B|-5--5--5--5--5--5--5--5--5--5--5--5--5--7--7--7---|
G|--------------------------------------------------|
D|--------------------------------------------------|
A|--------------------------------------------------|
e|--------------------------------------------------|

e|--0-----0-----0-----0-----2-----2-----2-----2-------|
B|--0-----0-----0-----0-----3-----3-----3-----3-------|
G|--1-----1-----1-----1-----2-----2-----2-----2-------|
D|--2-----2-----2-----2-----4-----4-----4-----4-------|
A|--2-----2-----2-----2-----2-----2-----2-----2-------|
E|--0-----0-----0-----0-------------------------------|

e|--------------------------------------------------|
B|-5--5--5--5--5--5--5--5--7--7--7--7--7--7--7------|
G|--------------------------------------------------|
D|--------------------------------------------------|
A|--------------------------------------------------|
e|--------------------------------------------------|

e|--4-----4-----4-----4-----4-----4-----4-----4-------|
B|--2-----2-----2-----2-----2-----2-----2-----2-------|
G|--2-----2-----2-----2-----2-----2-----2-----2-------|
D|----------------------------------------------------|
A|----------------------------------------------------|
E|--2-----2-----2-----2-----2-----2-----2-----2-------|

e|--------------------------------------------------|
B|-9--9--9--9--9--9--9--9--9--9--9--9--9--10-10-10--|
G|--------------------------------------------------|
D|--------------------------------------------------|
A|--------------------------------------------------|
e|--------------------------------------------------|

e|--0-----------------------2-------------------------|
B|--0-----------------------3-------------------------|
G|--1-----------------------2-------------------------|
D|--2-----------------------4-------------------------|
A|--------------------------2-------------------------|
E|--0-------------------------------------------------|

e|---4------------------------------------------------|
B|---2------------------------------------------------|
G|---2------------------------------------------------|
D|----------------------------------------------------|
A|----------------------------------------------------|
E|---2------------------------------------------------|

e|---0------------------------------------------------|
B|---0------------------------------------------------|
G|---1------------------------------------------------|
D|---2------------------------------------------------|
A|----------------------------------------------------|
E|---0------------------------------------------------|

11. Life is for living
TUNING - STANDARD with capo on fret 1


A       = x02220 |
 F#m7   = 242222 |
E6sus4  = 022220 |
 E      = 022100 |
 D      = xx0232 |
 Bm7    = x24232 |
 Asus4  = x02230 |
 E7     = 022130 |
 D5     = xx023x |
 Dmaj9  = xx0220 |



[Verse]

      A     F#m7  E6sus4   E      D     Bm7   
   A  Asus4 A
e|---------------------------|----------------------------|
B|----2------2------2----0---|----3------3------2--3--2---|
G|----2------2------2----1---|----2------2------2--2--2---|
D|---------------------------|--0-------------------------|
A|--0------------------------|------4--2---2--0-------0---|
e|------4--2---2--0----0-----|----------------------------|(x4)

 Now I never meant to do you wrong,
 Thats what I came here to say,
 But if I was wrong then I'm sorry,
 But don't let it stand in our way,
 'Cause my head just aches when I think of,
 The things that I shouldn't have done,
 But life is for living we all no,
 And I don't want to live it alone.


[Break]

       E    E7
 Sing ah ah ah,
      D5   Dmaj9
 Sing ah ah ah,
               E    E7
 And you sing ah ah ah,


[Outro]

      A     F#m7  E6sus4   E      D     Bm7   
   A  Asus4 A
e|---------------------------|----------------------------|
B|----2------2------2----0---|----3------3------2--3--2---|
G|----2------2------2----1---|----2------2------2--2--2---|
D|---------------------------|--0-------------------------| 
A|--0------------------------|------4--2---2--0-------0---|
e|------4--2---2--0----0-----|----------------------------|(x2)

************************************

| x    Dead note
| (n)  Ghost note
| h    Hammer-on
| r    Release
| b    Bend
| /    Slide up
| \    Slide down
| s    slide

************************************
Suggest correction
comments
print report bad tab
3 comments total.
+2 reply
plusbeaudeluniv 56 May 21, 2014 06:43 AM

didn't like this contribution

0 reply
pompoko 62 Feb 23, 2015 01:19 PM

What a mess :/

0 reply
Blef27 20 Dec 29, 2015 10:22 AM

 
i think the instrumental verse is 12 12
9 10 (not 11)

guest
You may want to rate the tab now too:
select rating
Wanna post a correction for this tab? Suggest correction