Oops, an error
Loading. Please wait.

Parachutes Tab

version 1
version 1

Album

Interactive

114,516 views 21 this week
3 commentsread comments
1 2 3 4 5
x 27
add to favorites
launch autoscroll
font size
0
reset
how to read this tab
guitar tuner
Autoscroll
slow
fast
+/-
esc
set tempo
stop
Help us to improve Ultimate-Guitar.com Take our survey!
×
Author
Artist: Coldplay
Album: Parachutes
Tuning - EADGBE

1. Song: Don't Panic
[Intro]
(Guitars 1, 2)
e|--0---0---0--x--|
B|--1---0-h-1--x--|
G|--2---0-h-2--x--|
D|--3---3---3--x--| (Repeat this a few times)
A|--3---3---3--x--|
E|--1---1---1--x--|

[Verse]
(Guitar 1)
e|--0----0----0-------|
B|--1----1----1-------|
G|--2----0----2-------|
D|--2----2----3-------|
A|--0----3----3-------|
E|------------1-------|

[Guitar 2]
e|--5----8----0---0---0--x--0---0--x--|
B|--5----8----1---0-h-1--x--0-h-1--x--|
G|--5----9----2---0-h-2--x--0-h-2--x--|
D|--7---10----3---3---3--x--3---3--x--|
A|--7---10----3---3---3--x--3---3--x--|
E|--5----8----1---1---1--x--1---1--x--|

[Chorus]
(Guitar 1)
e|--1----0----0--|
B|--3----1----1--|
G|--2----2----0--|
D|--0----3----2--|
A|-------3----3--|
E|-------1-------|

[Guitar 2]
e|--5-5-5-5-5-5-5-5-7-7-7-8-8-8-8---------------------|
B|--------------------------------5-5-5-5-5-5-5/10/13-|
G|----------------------------------------------------|
D|----------------------------------------------------|
A|----------------------------------------------------|
E|----------------------------------------------------|

e|-15----15\5-5-5-5-5-5-5-5-7-7-7-8-8-8-8-|
B|----13----------------------------------|
G|----------------------------------------|
D|----------------------------------------|
A|----------------------------------------|
E|----------------------------------------|

e|------5-----------5------|
B|--5h6---5h6p5-5h6---5h6--|
G|-------------------------|
D|-------------------------|
A|-------------------------|
E|-------------------------|

[Verse]
(Guitar 1)
e|--0----0----0-------|
B|--1----1----1-------|
G|--2----0----2-------|
D|--2----2----3-------|
A|--0----3----3-------|
E|------------1-------|

[Guitar 2]
e|--5----8----0---0---0--x--0---0--x--|
B|--5----8----1---0-h-1--x--0-h-1--x--|
G|--5----9----2---0-h-2--x--0-h-2--x--|
D|--7---10----3---3---3--x--3---3--x--|
A|--7---10----3---3---3--x--3---3--x--|
E|--5----8----1---1---1--x--1---1--x--|

[Chorus]
(Guitar 1)
e|--1----0----0--|
B|--3----1----1--|
G|--2----2----0--|
D|--0----3----2--|
A|-------3----3--|
E|-------1-------|

[Interlude]
(Guitar 1)
e|--0----0----0-------|
B|--1----1----1-------|
G|--2----0----2-------|
D|--2----2----3-------|
A|--0----3----3-------|
E|------------1-------|

(Piano transcribed for guitar)
e|----------------------------------------------|
B|--5-8-6-5-5-8-6-5-3-1--5-8-6-5-5-8-6-5-6-5-1--|
G|----------------------------------------------|
D|----------------------------------------------|
A|----------------------------------------------|
E|----------------------------------------------|

[Chorus]
(Guitar 1)
e|--1----0----0--|
B|--3----1----1--|
G|--2----2----0--|
D|--0----3----2--|
A|-------3----3--|
E|-------1-------|

[Bridge]
(Guitar 1)
e|--0----0----0-------|
B|--1----1----1-------|
G|--2----0----2-------|
D|--2----2----3-------| x2
A|--0----3----3-------|
E|------------1-------|

[Guitar 2]
e|-------12----12----12----12----12----12----12------------5-----------5--------|
B|--5/13----13----13----13----13----13----13----13\\\--5h6---5h6p5-5h6---5h6p5--|
G|------------------------------------------------------------------------------|
D|------------------------------------------------------------------------------| x2
A|------------------------------------------------------------------------------|
E|------------------------------------------------------------------------------|

[Outro]
(Guitar 1)
e|--0----0----0-------|
B|--1----1----1-------|
G|--2----0----2-------|
D|--2----2----3-------| x2
A|--0----3----3-------|
E|------------1-------|

[Guitar 2]
e|--5----8----0---0---0--x--0---0--x--|
B|--5----8----1---0-h-1--x--0-h-1--x--|
G|--5----9----2---0-h-2--x--0-h-2--x--|
D|--7---10----3---3---3--x--3---3--x--| x2
A|--7---10----3---3---3--x--3---3--x--|
E|--5----8----1---1---1--x--1---1--x--|

2. Song: Shiver

 [Guitar 1]: E A D G# B E
 [Guitar 2]: E A D G  B E

[Intro]
(Guitar 1)     
e|--0-----0-----0---|
B|--0-----0-----0---|
G|--0-----7-----0---|
D|--2-----9-----2---|
A|--2-----9-----2---|
E|--0-----7-----0---|

(Guitar 2)
e|--12----11---12---9---11---12---9---11---12---9---11---12---9---11---12----|
B|--12-----------------------------------------------------------------------|
G|---9--9----9----9---9----9----9---9----9----9---9----9----9---9----9----9--|
D|---------------------------------------------------------------------------|
A|---------------------------------------------------------------------------|
E|---------------------------------------------------------------------------|

e|----9---11---12---9---11---12---9---12--|
B|----------------------------------------|
G|--9---9----9----9---9----9----9---9-----|
D|----------------------------------------|
A|----------------------------------------|
E|----------------------------------------|

[Guitar 1]
e|--0----0----0----0---|     e|--0----0--|
B|--0----0----0----0---|     B|--0----0--|
G|--7----0----5----0---|    G#|--5----0--|
D|--9----4----7----6---| x3  D|--7----6--|
A|--9----4----7----6---|     A|--7----6--|
E|--7----2----5----4---|     E|--5----4--|

[Guitar 2]
e|-----------------------------------------------------------------|
B|-----------------------------------------------------------------|
G|--6-s-8-8-8-8-s-6-6-s-9-9-9-9-s-6-6-s-8-8-8-8-s-6----------------|
D|--------------------------------------------------6-6-6-6-s-9-9--| x2
A|-----------------------------------------------------------------|
E|-----------------------------------------------------------------|

e|--------------------------------------------------------------------------------|
B|--------------------------------------------------------------------------------|
G|--6-s-8-8-8-8-s-6-6-s-9-9-9-9-s-14-14-14-14-14-s-16-s-13-13-13-13--6-6-s-8-s-4--|
D|--------------------------------------------------------------------------------|
A|--------------------------------------------------------------------------------|
E|--------------------------------------------------------------------------------|

[Verse]
(Guitar 1)
e|--4---4---4---7---7---7---4---4---4---7---7---7-|-0------------------|
B|--0---0---0---0---0---0---0---0---0---0---0---0-|-0------------------|
G|--0---0---0---0---0---0---0---0---0---0---0---0-|-7------------------|
D|--6---6---6---6---6---6---6---6---6---6---6---6-|-9------------------|
A|--7---7---7---7---7---7---7---7---7---7---7---7-|-9------------------|
E|------------------------------------------------|-7------------------|

[Guitar 2]
e|-------------------------------|------14----12-------11----------9--------|
B|-------------------------------|---12----------12-------12---------12-----|
G|-13~~~~~-----------------------|-11-------11-------11-------11-11------11-|
D|-------------------------------|------------------------------------------|
A|-------------------------------|------------------------------------------|
E|-------------------------------|------------------------------------------|

[Break] (But all in dark)

[Guitar 1]
e|--0-----0--0--0-|--0-------0---------|
B|--0-----0--0--0-|--0-------0---------|
G|--5-----2--2--2-|--4-------7---------|
D|--6-----4--2--4-|--6-------9---------|
A|--4-----4--4--4-|--5-------9---------|
E|--------2--2--2-|----------7---------|

[Guitar 2]
e|---------------------------------------------------------------------------|
B|---------------------------------------------------------------------------|
G|----9-9-9-9-9-8-8-8-6-6-6---9-9-9-9-9-8-8-8-6-6-6---9-9-9-9-9-8-8-8-6-6-6--|
D|--6-----------------------6-----------------------8------------------------|
A|---------------------------------------------------------------------------|
E|---------------------------------------------------------------------------|

e|--------------------------------------------------------------------------------|
B|--------------------------------------------------------------------------------|
G|----9-9-9-9-9-8-8-8-s-11-11-11---9-9-9-9-9-8-8-8-6-6-6---9-9-9-9-9-8-8-8-6-6-6--|
D|--8----------------------------6-----------------------6------------------------|
A|--------------------------------------------------------------------------------|
E|--------------------------------------------------------------------------------|

e|-------------------------------------------------------------|
B|----0---0-------0---0--------0----0---------0----0----0------|
G|--4---4---4-s-8---8---8-s-11---11---11-s-14---14---14---14---|
D|-------------------------------------------------------------|
A|-------------------------------------------------------------|
E|-------------------------------------------------------------|

[Pre-Chorus]
(So, you want me to change)
(Guitar 1)

e|--0---0---0---0--|            e|--0---0---0-0-0-0----0--|
B|--0---0---0---0--|            B|--0---0---0-0-0-0----0--|
G|--0---7---7---7--|           G#|--0---7---7-7-7-7----7--|
D|--6---5---9---5--| x2         D|--6---5---9-9-9-9----9--|
A|--6---6---9---6--|            A|--6---6---9-9-9-9----7--|
E|--4--------------|            E|--4---------------------|
 
[Guitar 2]
e|--------------------------------------------------------------------------------|
B|--------------------------------------------------------------------------------|
G|-------8------------8------------8------------8------------8------------8-------|
D|-----9------9-----9------9-----9------9-----9------9-----9------9-----9------9--|
A|--11-----11----10-----10----11-----11----10-----10----11-----11----10-----10----|
E|--------------------------------------------------------------------------------|

e|--------------------------------------------------------------------------------|
B|--------------------------------------------------------------------------------|
G|------8----------8-----------8------------8-----------8----------8--------8\\\--|
D|----9-----9----9-----9-----9------9-----9------9----9-----9----9-----9----9\\\--|
A|--9-----9----9-----9----11-----11----10-----10----9-----9----9-----9------7\\\--|
E|--------------------------------------------------------------------------------|

[Chorus] 
(The chorus is the second part of the intro)

[Middle 8]
(The first part of the intro)

[Outro]

(Guitar 1)

e|--4---4---4---7---7---7---4---4---4---7---7---7---|
B|--0---0---0---0---0---0---0---0---0---0---0---0---|
G|--0---0---0---0---0---0---0---0---0---0---0---0---|
D|--6---6---6---6---6---6---6---6---6---6---6---6---| x2 
A|--7---7---7---7---7---7---7---7---7---7---7---7---|
E|--------------------------------------------------|

[Guitar 2]
e|-------------------------------|
B|---9---12----9---12----9---12--|
G|--13---13---13---13---13---13--|
D|--14---14---14---14---14---14--|
A|-------------------------------|
E|-------------------------------|

3. Song: Spies

 Guitars 1 and 2 - E A C# G B C#

[Intro]
(Guitar 2)

e|------------------------|
B|--14~~~~~b16~~~r14~~~~--|
G|------------------------|
D|------------------------| x4
A|------------------------|
E|------------------------|

[Guitar 1]
e|--0--|
B|--5--|
G|--6--|
D|--0--|
A|--4--|
E|-----|

[Verse]
(Guitar 1)
e|--0------0------0------0--|
B|--2------2------5------4--|
G|--2------1------6------4--|
D|--0------0------0------0--| x4
A|--4------2------7------6--|
E|--2------0------5------4--|

[Chorus]
(Guitar 1)
e|--0------0-------0-----0---0--|
B|--0------0-------0-----2---2--|
G|--6------9-------6-----1---3--|
D|--0------0-------0-----0---0--| x4
A|--4------7-------4-----2---x--|
E|---------------------------2--|
 
[Guitar 2]
e|---------14---12------10------------14---15------17--------|
B|-------0----0----0-------0--------0----0----0-------0------|
G|-----------------------------------------------------------|
D|--//12-------------12------12//15-------------15------15\\-|
A|-----------------------------------------------------------|
E|-----------------------------------------------------------|

e|---------14---12------10---------------7---5-----3-------|
B|-------0----0----0-------0-----------0---0---0-----0-----|
G|---------------------------------------------------------|
D|--//12-------------12------12----\\5-----------5-----5//-| x2
A|---------------------------------------------------------|
E|---------------------------------------------------------|

[Middle 8]
(Guitar 1)
e|--0----0----0----0----0----0----0----0-0--|
B|--5----7----5----7----5----7----2----4-4--|
G|--6----8----6----8----6----8----2----6-5--|
D|--0----0----0----0----0----0----0----0-0--|
A|--7----9----7----9----7----9----4----6-6--|
E|--5----7----5----7----5----7----2----4-4--|

[Break] 
(The spies came out of the water...)
(Guitar 1)
e|--0----0----0----0---|--0----0----0----0--|
B|--5----4----5----2---|--2----2----5----4--|
G|--6----5----6----3---|--2----1----6----4--|
D|--0----0----0----0---|--0----0----0----0--|
A|--7----6----7----4---|--4----2----7----6--|
E|--5----4----5----2---|--2----0----5----4--|

[Outro]
(Guitar 1)
e|--0-----0-----0--0-0-0-0-0-0-0-0-0-0-0-0-0-0--|
B|--5-----5-----7--9-9-9-7-7-7-9-9-9-7-7-7-9-9--|
G|--6-----6-----8--8-8-8-8-8-8-8-8-8-8-8-8-8-8--|
D|--0-----0-----0--0-0-0-0-0-0-0-0-0-0-0-0-0-0--| x4
A|--4-----7-----9--9-9-9-9-9-9-9-9-9-9-9-9-9-9--|
E|--------5-----7--7-7-7-7-7-7-7-7-7-7-7-7-7-7--|

[End on ]
e|--0--|
B|--5--|
G|--6--|
D|--0--|
A|--4--|
E|-----|

4. Song: Sparks

[Guitar 1] - Standard Tuning with Capo on FRET 6
[Guitar 2] - Standard Tuning With Capo on Fret 1

[Intro]
(Guitar 1)
e|--0---0---0---0---0---0-----0------|
B|--0---0---0---0---0---0-----0------|
G|--0---0---0---0---0---0-----0-0-0--|
D|--2---4---5---7---2---2-----2-0-0--|
A|--2---6---7---8---4---3-----2-2-0--|
E|-----------------------------------|

e|--3----3----3----3--|
B|--3----3----3----3--|
G|--0----0----0----0--|
D|--0----2----0----2--|
A|--2----2----2----2--|
E|--3----0----3----0--|

[Verse 1]
(For the last sequence you use thumb to hold down the bass note)

[Guitar 1]
e|--3----3----3----3----|--3------------------|--3-3-3-3--3-3-3-3-3--|
B|--3----3----3----3----|--3------------------|--0-0-0-0--0-0-0-0-0--|
G|--0----0----0----0----|--0------------------|--0-0-0-0--0-0-0-0-0--|
D|--0----2----0----2----|--2------------------|--4-4-4-4--5-5-5-5-5--| x2
A|--2----2----2----2----|--3------------------|--5-5-5-5--5-5-5-5-5--|
E|--3----0----3----0----|---------------------|--3-3-3-3--3-3-3-3-3--|

[Guitar 2]
e|----------------------|-----0---3-0---0-----|--3-------------------|
B|----------------------|-0h1---1---------1-0-|----------------------|
G|----------------------|---------------------|--0-------------------|
D|----------------------|---------------------|----------------------| x2
A|----------------------|---------------------|----------------------|
E|----------------------|---------------------|----------------------|

[Chorus]
(Guitar 1) 
e|--0---0---0---0---0---0-----0------| |--0---0---0---0---0---0-----0------|
B|--0---0---0---0---0---0-----0------| |--0---0---0---0---0---0-----0------|
G|--0---0---0---0---0---0-----0-0-0--| |--0---0---0---0---0---0-----0-0-0--|
D|--2---4---5---7---2---2-----2-0-0--| |--2---4---5---7---2---2-----2-0-0--|
A|--2---6---7---8---4---3-----2-2-0--| |--2---6---7---8---4---3-----2-2-0--|
E|-----------------------------------| |-----------------------------------|

[Guitar 2]
e|--5---7---8--10---8----------------| |--5---7---8--10--12----------------|
B|-----------------------------------| |-----------------------------------|
G|--2---4---5---7---5----------------| |--2---4---5---7---9----------------|
D|-----------------------------------| |-----------------------------------|
A|-----------------------------------| |-----------------------------------|
E|-----------------------------------| |-----------------------------------|

[Verse 2]
(Guitar 1)
e|--3----3----3----3----|--3------------------|--3-3-3-3--3-3-3-3-3--|
B|--3----3----3----3----|--3------------------|--0-0-0-0--0-0-0-0-0--|
G|--0----0----0----0----|--0------------------|--0-0-0-0--0-0-0-0-0--|
D|--0----2----0----2----|--2------------------|--4-4-4-4--5-5-5-5-5--| x1
A|--2----2----2----2----|--3------------------|--5-5-5-5--5-5-5-5-5--|
E|--3----0----3----0----|---------------------|--3-3-3-3--3-3-3-3-3--|

[Guitar 2]
e|----------------------|-----0---3-0---0-----|--9-------------------|
B|----------------------|-0h1---1---------1-0-|--9-------------------|
G|----------------------|---------------------|--6-------------------|
D|----------------------|---------------------|----------------------|
A|----------------------|---------------------|----------------------|
E|----------------------|---------------------|----------------------|

(The verse then changes to this second time round)

[Guitar 1]
(Again use thumb)
e|--3----3----3----3----|--3------------------|--3-3-3-3--3-3-3-3-3--|
B|--0----0----0----0----|--3------------------|--0-0-0-0--0-0-0-0-0--|
G|--0----0----0----0----|--0------------------|--0-0-0-0--0-0-0-0-0--|
D|--5----4----5----4----|--2------------------|--4-4-4-4--5-5-5-5-5--|
A|--5----5----6----5----|--3------------------|--5-5-5-5--5-5-5-5-5--|
E|--3----3----3----3----|---------------------|--3-3-3-3--3-3-3-3-3--|

[Guitar 2]
e|--9----8----9----2----|-----0---3-0---0-----|--9-------------------|
B|--9----9---10----3----|-0h1---1---------1-0-|--9-------------------|
G|--6----6----6----0----|---------------------|--6-------------------|
D|----------------------|---------------------|----------------------| 
A|----------------------|---------------------|----------------------|
E|----------------------|---------------------|----------------------|

[Chorus]
(Guitar 1) 
e|--0---0---0---0---0---0-----0------| |--0---0---0---0---0---0-----0------|
B|--0---0---0---0---0---0-----0------| |--0---0---0---0---0---0-----0------|
G|--0---0---0---0---0---0-----0-0-0--| |--0---0---0---0---0---0-----0-0-0--|
D|--2---4---5---7---2---2-----2-0-0--| |--2---4---5---7---2---2-----2-0-0--|
A|--2---6---7---8---4---3-----2-2-0--| |--2---6---7---8---4---3-----2-2-0--|
E|-----------------------------------| |-----------------------------------|

[Guitar 2]
e|--5---7---8--10---8----------------| |--5---7---8--10--12----------------|
B|-----------------------------------| |-----------------------------------|
G|--2---4---5---7---5----------------| |--2---4---5---7---9----------------|
D|-----------------------------------| |-----------------------------------|
A|-----------------------------------| |-----------------------------------|
E|-----------------------------------| |-----------------------------------|

[Outro]
(Guitar 1)
e|--3----3----3----3--|
B|--3----3----3----3--|
G|--0----0----0----0--|
D|--0----2----0----2--|
A|--2----2----2----2--|
E|--3----0----3----0--|

5. Song: Yellow

TUNING - E A B G B Eb

[Chords]  
      B  F#   E  G#m A/F#m
e|---0---0---0---0---1--|
B|---0---2---0---0---0--|
G|---8---3---1---4---2--|
D|---0---0---0---0---0--|
A|---9---4---2---6---0--|
E|---7---2---0---4---2--|

[Intro]
(acoustic)
e|---0--0--0--0--0--0--0--|
B|---0--0--0--0--0--0--0--|
G|---8--8--8--8--8--8--9--|
D|---0--0--0--0--0--0--0--|
A|---9--9--9--9--9--9--9--|x2
E|---7--7--7--7--7--7--7--|

[Intro]
(PLAYED WITH B,F# and E)
                        B
e|----------------------------------------------------------|
B|---0-----0-----0-----0-----0-----0-----0-----0--0--0--0---|
G|--9b11--9b11--9b11--9b11--9b11--9b11--9b11---9--9--9--9---|
D|----------------------------------------------------------|
A|----------------------------------------------------------|
E|----------------------------------------------------------|

                        F#
e|-----------------------------------------------------------------------|
B|---0------0------0------0------0------0------0------0----0----0----0---|
G|-13b15--13b15--13b15--13b15--13b15--13b15--13b15---13---13---13---13---|
D|-----------------------------------------------------------------------|
A|-----------------------------------------------------------------------|
E|-----------------------------------------------------------------------|

                        E
e|------------------------------------------------------|
B|----0----0----0----0----0----0----0---0---0---0---0---|
G|--4b6--4b6--4b6--4b6--4b6--4b6--4b6---4---4---4---4---|
D|------------------------------------------------------|
A|------------------------------------------------------|
E|------------------------------------------------------|

                       B
e|------------------------------------------------------------|
B|---0-----0-----0-----0-----0-----0-----0-----0--0--0--0--0--|
G|--9b11--9b11--9b11--9b11--9b11--9b11--9b11---9--9--9--9--8--|
D|------------------------------------------------------------|
A|------------------------------------------------------------|
E|------------------------------------------------------------|

[Verse]
(B,F# and E)
(The lead guitar plays these versions of the chords during the verse)
        B     F#      E
e|--8------0------8---|
B|--0-----11------0---|
G|--8-----11------9---|
D|--9-----12------0---|
A|--------------------|
E|--------------------|

e|------8--------8--------8--------8----|
B|----0---0----0---0----0---0----0---0--|
G|--8--------8--------9--------8--------|
D|--------------------------------------|
A|--------------------------------------|
E|--------------------------------------|

[Chorus]
(E,G#m and F#)
(Riff played during chorus)

      E                      G#m            F#m
Eb|--17-17-17-17-17-17-17-17-17-17-17-17-17-15-15-15-15--|
B |---0--0--0--0--0--0--0--0--0--0--0--0--0--0--0--0--0--|
G |------------------------------------------------------|
B |------------------------------------------------------|
A |------------------------------------------------------|
E |------------------------------------------------------|

[Outro]
B,A/F#m,E

6. Song: Trouble

 STANDARD TUNING

[Intro]
 G, Em, Bm x2

[Verse]
 G, Em, Bm, F, Am x2

[Repeat the intro and verse]

[Chorus]
 A, Em7

[Lead plays this during chorus]
      A         Em7
e|---------------------|
B|--8-s-14----14-s-12--|
G|---------------------|
D|---------------------|
A|---------------------|
E|---------------------|

[Instrumental]
 G, Em, Bm
(Lead plays)

     G   Em  Bm
e|--10--------9--|
B|--12--------7--|
G|--12--------7--|
D|--12--------9--|
A|---------------|
E|---------------|

[Middle 8]
 Em, F#m, G, F#m x3
 Em

(Then repeat instrumental to end)

7. Song: Parachutes
 Tuning - E A D G B E

(Play the following twice)

      B          G#m
e|------------------------|
B|------------------------|
G|----8-----8----4-----4--|
D|------9----------6------| x2
A|--------9----------6----|
E|--7----------4----------|

    F#m          F#m          E            E
e|------------------------------------------------------|
B|------------------------------------------------------|
G|----2-----2------2-----2------1-----1------1-----1----|
D|------4-----4------4-----4------2-----2------2-----2--|
A|--------4------------4------------2------------2------|
E|--2------------2------------0------------0------------|

8. Song: High Speed

 Tunings:
[Guitar 1] - D G D G B Eb
[Guitar 2] - E A D G B E

[Intro]
(Guitar 1)
e|--4----4----|
B|--3----3----|
G|--0----0----|
D|--0----0----| x4
A|--3----5----|
E|------------|

[Guitar 2]
e|------6-6-5-5-3-3------8-8-6-6-5-5--|    |------6-6-5-5-3-3---8~~---|
B|------------------------------------|    |--------------------5~~---|
G|--3-3--------------5-5--------------|    |--3-3---------------5~~---|
D|------------------------------------| x3 |--------------------------|
A|------------------------------------|    |--------------------------|
E|------------------------------------|    |--------------------------|

[Guitar 1]
e|--4-----|
B|--3-----|
G|--0-----|
D|--0-----| x2
A|--0-----|
E|--------|

[Guitar 2]
e|----------------------------------------------|
B|----3---3\1---1p0-----------------------------|
G|--4---4-----2-----2-0--------------0h2p0---0--|
D|-----------------------------0-0h2-------2----| x2
A|-------------------------0h2------------------|
E|----------------------3-----------------------|

[Verse]
(Guitar 1)
e|--4-------4--|
B|--3-------3--|
G|--0-------0--|
D|--0-------0--| x4
A|--3-------0--|
E|-------------|

[Guitar 2] 
(The lead plays a series of different riffs over
the first chord for example)
e|---------------------|
B|--3-4-3-4-3-4-3-4-3--|
G|---------------------|
D|---------------------|
A|---------------------|
E|---------------------|

(This is always played over the second chord in the verse)
e|----------------------------------------------|
B|----3---3\1---1p0-----------------------------|
G|--4---4-----2-----2-0--------------0h2p0---0--|
D|-----------------------------0-0h2-------2----| 
A|-------------------------0h2------------------|
E|----------------------3-----------------------|

(Before the chorus it changes to)
e|-----------------------------7---7-------|
B|----3---3\1---1p0-------5//8---8---8\\---|
G|--4---4-----2-----2-0--------------------|
D|-----------------------------------------|
A|-----------------------------------------|
E|----------------------3------------------|

[Chorus]
(Guitar 1)
e|--4-------4--|    |--4-----|
B|--3-------3--|    |--3-----|
G|--0-------0--|    |--0-----|
D|--0-------0--| x2 |--0-----|
A|--3-------0--|    |--0-----|
E|-------------|    |--------|

[Guitar 2]
e|------------------------------|    |---------|
B|----3-------3------5-----5----|    |--3~~~~--|
G|------0-------0------0~~---0--|    |--0~~~~--|
D|--3------3------/5------------| x2 |--0~~~~--|
A|------------------------------|    |---------|
E|------------------------------|    |---------|

(The outro is a continuos G) 
e|--4--|
B|--3--|
G|--0--|
D|--0--|
A|--0--|
E|-----|

9. Song: We never change

Tunings 
[Guitar 1] E A D G B C# (Tune high e string down 1 and a half steps to C#) 
[ Guitar 2] E A D G B E
  
[Intro]
(Guitar 1)
e|--0-----0--|
B|--0-----0--|
G|--2-----1--|
D|--4-----2--| x2
A|--4-----2--|
E|--2-----0--|

[Verse]
(Guitar 1)
e|--0-----0--|
B|--0-----0--|
G|--2-----1--|
D|--4-----2--| x2
A|--4-----2--|
E|--2-----0--|

e|--0--0-----0--|
B|--0--0-----0--|
G|--4--2-----1--|
D|--4--4-----2--| x2
A|--2--4-----2--|
E|-----2-----0--|

[Chorus]
(Guitar 1)
e|--0-----0---|
B|--0-----0---|
G|--6-----6---|
D|--7-----6---|
A|--7-----4---|
E|--5---------|

[Guitar 2]
e|--17-----------------16~~--12----11----|
B|------------------------------10---10--|
G|-----9-11-11b13r11---------------------|
D|---------------------------------------| x2
A|---------------------------------------|
E|---------------------------------------|

[Verse]
(Guitar 1)
e|--0-----0--|
B|--0-----0--|
G|--2-----1--|
D|--4-----2--| x2
A|--4-----2--|
E|--2-----0--|

e|--0--0-----0--|
B|--0--0-----0--|
G|--4--2-----1--|
D|--4--4-----2--| x2
A|--2--4-----2--|
E|-----2-----0--|

[Chorus]
(Guitar 1)
e|--0-----0---|
B|--0-----0---|
G|--6-----6---|
D|--7-----6---|
A|--7-----4---|
E|--5---------|

[Verse]
(Guitar 1)
e|--0-----0--|
B|--0-----0--|
G|--2-----1--|
D|--4-----2--| x2
A|--4-----2--|
E|--2-----0--|

e|--0--0-----0--|
B|--0--0-----0--|
G|--4--2-----1--|
D|--4--4-----2--| x2
A|--2--4-----2--|
E|-----2-----0--|
 
[Bridge]
(Guitar 1)
e|--0----0--|
B|--0----0--|
G|--4----1--|
D|--4----2--| x2
A|--2----2--|
E|-------0--|

[Verse]
(Guitar 1)
e|--0-----0--|
B|--0-----0--|
G|--2-----1--|
D|--4-----2--| x2
A|--4-----2--|
E|--2-----0--|

e|--0--0-----0--|
B|--0--0-----0--|
G|--4--2-----1--|
D|--4--4-----2--| x2
A|--2--4-----2--|
E|-----2-----0--|

[Outro]
(Guitar 1)
e|--0--0--0--0-----0--0---0--0--|--0--0--0---0--|
B|--0--0--0--0-----0--0---0--0--|--0--0--0---0--|
G|--7--2--1--7-----2--1--11--7--|--2--1--7---2--|
D|--9--4--2--9-----4--2--12--9--|--4--2--9---4--|
A|--9--4--2--9-----4--2--12--9--|--4--2--9---4--|
E|--7--2--0--7-----2--0--10--7--|--2--0--7---2--|
 

10. Song: Everything not lost
(Difficult to tab for guitar, but easy to play
on the piano. Whoever plays the piano might
get a better understanding)

Standard Tuning - E A D G B E

[Verse]
e|--0-----0-----0--|    |-----0----0--|
B|--0-----0-----3--|    |-----0----0--|
G|--1-----1-----1--|    |-----2----1--|
D|--2-----1-----0--| x3 |-----2----2--|
A|--2-----2-----2--|    |-----0----2--|
E|-----------------|    |-------------|

(Every other time this is played sometimes with slight variation)
e|--0-----0-----0-----0-----0--0--0--|
B|--0-----0-----3-----0-----0--0--0--|
G|--1-----1-----1-----2-----2--4--1--|
D|--2-----1-----0-----2-----2--4--2--|
A|--2-----2-----2-----4-----4--2--2--|
E|-----------------------------------|

[Chorus]
(Lead)
e|--12-12-12-12-12-12-\\\\\\-4-5--|
B|--------------------------------|
G|--------------------------------|
D|--------------------------------| (Repeated a few times)
A|--------------------------------|
E|--------------------------------|

e|-0---|    |--0-----0-----0---|
B|-0---|    |--0-----0-----0---|
G|-1---|    |--1-----0-----2---|
D|-2---| x1 |--2-----0-----2---|
A|-2---|    |--2-----2-----4---|
E|-----|    |------------------|

(Come on yeah...) bit: 
e|--0----0----0--|
B|--0----3----0--|
G|--1----1----1--|
D|--2----0----2--| x4 then it returns to the chorus part
A|--2----2----4--|
E|---------------|

[Break/Outro]
e|--0-----2-----2--|
B|--0-----3-----2--|
G|--1-----2-----2--|
D|--2-----4-----2--|
A|--2-----2-----4--|
E|--------------2--|

11. Song: Life is for living
Standard Tuning - E A D G B E with a Capo at Fret 1

    A   F#m7 Esus4 E  Dsus2 Bm7   A Asus4 A
e|--0----2-----0---0----0----2----0---0---0--|
B|--2----2-----0---0----3----3----2---3---2--|
G|--2----2-----2---1----2----2----2---2---2--|
D|--2----2-----2---2----0----4----2---2---2--|
A|--0----4-----2---2---------2----0---0---0--|
E|-------2-----0---0-------------------------|

[Break] 
e|--0---0---0----0---0---0--|-0---0---0--|
B|--0---2---3----0---0---0--|-0---2---3--|
G|--1---1---1----2---4---6--|-1---1---1--|
D|--2---2---2----0---0---0--|-2---2---2--|
A|--2---2---2---------------|-2---2---2--|
E|--0---0---0---------------|-0---0---0--|


************************************

| x  Dead note
| h  Hammer-on
| /  Slide up
| \  Slide down
| p  Pull-off
| ~  Vibrato
| b  Bend
| r  Release

************************************
Suggest correction
comments
print report bad tab
3 comments total.
0 reply
Brandon_leigh 16 Nov 25, 2006 12:36 PM

This is Good!:o
Why isn't anyone posting? :l

0 reply
kiwifugl 31 Mar 28, 2007 07:25 PM

This is good, very good. But not perfect, I'll have to say. I don't agree with some of the songs and, for example, Spies needs a little more explanation. No comments on other songs for except Everything's not Lost, the chords in the beginning are fare more difficult then a simple E -> Emaj7 -> E7 progression, it involves a E -> Fmb5 with the Ab in the bass -> Emb5b7 with F# in the bass. 'Tis a tad bit more complex than the E major progression.

But apart from that this tab is awesome, thanks a lot! :D

0 reply
liam3050 42 Jun 17, 2008 06:36 PM

This is good! yellow needs just a little bit changing though the G#m posted sounds horrible instead its E4 A6 B0 G4 B0 D#0 Thats the strings with which fret you should hold em at e.g the 'E4' is the E string held at the forth fret. Also the final chord the A/F#m sounds more like: E2 A0 B2 G2 B0 D#1

guest
You may want to rate the tab now too:
select rating
Wanna post a correction for this tab? Suggest correction