Oops, an error
Loading. Please wait.

Paradise Bass Tab

version 1
version 1

Whole song

Interactive

79,382 views 42 this week
3 commentsread comments
1 2 3 4 5
x 16
add to favorites
launch autoscroll
font size
0
reset
guitar tuner
Autoscroll
slow
fast
+/-
esc
set tempo
stop
Help us to improve Ultimate-Guitar.com Take our survey!
×
Author
Difficulty
intermediate
-------------------------------------------------------------------------------
     PARADISE - Coldplay
-------------------------------------------------------------------------------

Tabbed By : Alex
e-mail: 

Tuning: Standard

It's probably a synth that plays this, but it's fun to play it.

[Intro]

(0:33)
G|------------------------------|
D|------------------------------|
A|-------------------8--8-----7-|
E|-6-5-3--3-5-6--6-8------5-6---|

G|------------------------------|
D|------------------------------|
A|-------------------8--8-------|
E|-6-5-3--3-5-6--6-8------5-6-8-|(x2)

(01:42)
When she was little girl...
G|-------------------------------|
D|-------------------------------|
A|-------------------------------|
E|-6~-5~--5~-3~--6~--/10~-10~-8~-|


[Chorus]
(for the rest of the song)

You'll hear yourself what parts to play on:
G|------------------------------|
D|------------------------------|
A|-------------------8--8-----7-|
E|-6-5-3--3-5-6--6-8------5-6---|

G|------------------------------|
D|------------------------------|
A|-------------------8--8-------|
E|-6-5-3--3-5-6--6-8------5-6-8-|



************************************

| /  Slide up
| ~  Vibrato

************************************
Suggest correction
comments
print report bad tab
3 comments total.
-1 reply
DanLeMan 10 Sep 25, 2011 01:58 PM

Just a little correction:

G|--------------------------|
D|--------------------------|
A|---------------8--8--7--7-|
E|-653--356--56-------------|

G|--------------------------|
D|--------------------------|
A|---------------8--8-------|
E|-653--356--56--------8--8-|

Other than that, nice job!

0 reply
telenofunken 101 Sep 17, 2013 08:19 PM

E|-6-5-3-33-h5/6-----------------6-5-3-3­3-h5/6--------------
A|---------------3-5------3-5------------­------3-5------3-5-3~-
D|-------------------3-33-----2~----------­---------3-33-------
G|--------------------------------------­--------------------

Little Middle Part(please note that this part has been edited and is not the exact same as the video. I go back and fix my covers all the time, but this part is right. In the video, I hit an Open A whereas I have fixed it, so now I strike the sixth fret of the E string (or first fret of A string) so just be aware.):

E|-6-5-3-33-h5/6--------------------6-5-3-3­3-h5/6---------------
A|----------------3-5----3-5---------------­------3-5-----1-0-3~-
D|-------------------3-33----2~------------­---------3-33--------
G|--------------------------------------­------------------------

0 reply
ronad2 186 Aug 16, 2014 12:54 AM

Lack of formatting.

guest
You may want to rate the tab now too:
select rating
Wanna post a correction for this tab? Suggest correction