Oops, an error
Loading. Please wait.
We have an official Paradise tab made by UG professional guitarists. Check out the tab »
×
11,743 views 24 this week
1 commentread comment
1 2 3 4 5
x 11
add to favorites
×
Save as Personal and add changes to this tab that will be seen only by you. Learn more ›
×
You can save this tab as Personal to edit and correct it or add notes. All changes will be seen only by you. Learn more »
launch autoscroll
font size
0
reset
guitar tuner
backing track
0:00
0:00
edit
Autoscroll
slow
fast
+/-
esc
set tempo
stop
Author
"Coldplay - Paradise"

Such a great song, and it's so fun to play! Enjoy.

By Jørgen Nesbø

INTRO:
G|--------------------------|--------------------------|
D|--------------------------|--------------------------|
A|---------------8--8-----7-|---------------8--8-------|
E|-653--356--6-8------5-6---|-653--356--6-8------5-6-8-|

G|--------------------------|--------------------------|
D|--------------------------|--------------------------|
A|---------------8--8-----7-|---------------8--8-------|
E|-653--356--6-8------5-6---|-653--356--6-8------5-6-8-|

FIRST VERSE:
G|--------------------------|--------------------------|
D|-----------------0--------|-----------------0--------|
A|------------------------3-|------------------------3-|
E|-3------1-----------------|-3------1-----------------|

G|--------------------------|--------------------------|
D|--------------------------|--------------------------|
A|--------1---------------3-|--------1---------------3-|
E|-3---------------1--------|-3----------------1-------|

INSTRUMENTAL PART:
G|--------------------------|--------------------------|
D|-----------------0--------|-----------------0--------|
A|------------------------3-|------------------------3-|
E|-3------1-----------------|-3------1-----------------|

SECOND VERSE:
G|--------------------------|--------------------------|
D|-----------------0--------|-----------------0--------|
A|------------------------3-|------------------------3-|
E|-3------1-----------------|-3------1-----------------|

 G|--------------------------|----------|
 D|--------------------------|----------|
 A|-1----------------------3-|-1--------|
 E|--------1--------1--------|--------1-|

PRE-CHORUS:
G|--------------------------|--------------------------|
D|--------------------------|--------------------------|
A|-1---------------3--------|-1---------------3--------|
E|--------1-----------------|--------1-----------------|



CHORUS:
G|--------------------------|--------------------------|
D|--------------------------|--------------------------|
A|---------------8--8-----7-|---------------8--8-------|
E|-653--356--6-8------5-6---|-653--356--6-8------5-6-8-|

G|--------------------------|--------------------------|
D|--------------------------|--------------------------|
A|---------------8--8-----7-|---------------8--8-------|
E|-653--356--6-8------5-6---|-653--356--6-8------5-6-8-|

INSTRUMENTAL PART:
G|--------------------------|--------------------------|
D|-----------------0-----32-|-----------------0-----32-|
A|--------3-----------------|--------3-----------------|
E|-3------------------------|-3------------------------|

 G|--------------------------|
 D|-----------------0-----32-|
 A|--------3-----------------|
 E|-3------------------------|

PRE-CHORUS:
G|--------------------------|--------------------------|
D|--------------------------|--------------------------|
A|-1---------------3--------|-1---------------3--------|
E|--------1-----------------|--------1-----------------|

CHORUS:
G|--------------------------|--------------------------|
D|--------------------------|--------------------------|
A|---------------8--8-----7-|---------------8--8-------|
E|-653--356--6-8------5-6---|-653--356--6-8------5-6-8-|

G|--------------------------|--------------------------|
D|--------------------------|--------------------------|
A|---------------8--8-----7-|---------------8--8-------|
E|-653--356--6-8------5-6---|-653--356--6-8------5-6-8-|

INSTRUMENTAL PART:
G|--------------------------|--------------------------|
D|--------------------------|--------------------------|
A|---------------8--8-----7-|---------------8--8-------|
E|-653--356--6-8------5-6---|-653--356--6-8------5-6-8-|

G|--------------------------|--------------------------|
D|--------------------------|--------------------------|
A|---------------8--8-----7-|---------------8--8-------|
E|-653--356--6-8------5-6---|-653--356--6-8------5-6-8-|

OUTRO:
G|--------------------------|--------------------------|
D|-----------------0-----32-|-----------------0--------|
A|--------3-----------------|--------3-----------------|
E|-3------------------------|-3------------------------|

            
            
Suggest correction
Creating personal tab
Creating personal tab
You can edit any tab online and save it as your Personal.

You can edit, replace or remove any tab part or add personal notes – all changes will be seen only by you.

Personal tabs can be accessed anytime from any device, even offline.
Learn more »
comments
print report bad tab
1 comment total.
0 reply
P_Trik 5,928 Jun 03, 2013 10:13 AM

this tab didn't deserve the one star rating it received first. it is a very good tab, so 5 stars to bring it closer to what it deserves

guest
You may want to rate the tab now too:
select rating
Wanna post a correction for this tab? Suggest correction