Oops, an error
Loading. Please wait.
We have an official Paradise tab made by UG professional guitarists. Check out the tab »
×
106,988 views 48 this week
2 commentsread comments
1 2 3 4 5
x 19
add to favorites
×
Save as Personal and add changes to this tab that will be seen only by you. Learn more ›
×
You can save this tab as Personal to edit and correct it or add notes. All changes will be seen only by you. Learn more »
launch autoscroll
font size
0
reset
how to read this tab
guitar tuner
backing track
0:00
0:00
edit
Autoscroll
slow
fast
+/-
esc
set tempo
stop
Author
Difficulty
Unregistered
intermediate
Level: Intermediate

 
Written by Nathan Cragg
 

Gtr I (E A D G B E) - 'Untitled'


   Q=125
  4/4
   Gtr I
   E E E E E E E E   E E E E E E E E   E E E E E E E E   E E E Q  +E  E E
e|-----------------|-----------------|-----------------|-------0--(0)-0-3--|
B|-----------------|-------0---------|-------1---------|-------------------|
G|-------0---------|-----0---------0-|-----2---2-------|-----0-------------|
D|-----3-----3-----|---0---------0---|---2-------0-----|---2---------------|
A|---3-----3---0h3-|-2---------2-----|-0-----------0-2-|-3-----------------|
E|-1---------------|---------3-------|-----------------|-------------------|


  4/4
   Q.   E E Q  E    E  E E E Q  E E
e|-5----7-5-3--0-|-(0)-------0--0---|
B|---------------|---------1------3-|
G|-5-------------|-------0----------|
D|-3-------------|-----2------------|
A|---------------|--3---------------|
E|---------------|------------------|


   E H    E E E   +H.      E E   Q.   E E Q  E
e|-0------------|----------0-3-|-5----7-5-3--0---|
B|---3------1---|--------------|-----------------|
G|------------4-|-(4)----------|-5---------------|
D|--------------|--------------|-3---------------|
A|-2------------|--------------|-----------------|
E|--------------|--------------|-----------------|


  4/4
    E  E E E Q  E E   E H..         E E E E E E E E   E E E E E E Q
e|-(0)-------0--0---|-0-----------|-----1-------1---|---1-----0---0---|
B|---------1------3-|---3---------|-------3-------3-|-----------------|
G|-------0----------|-------------|---------2-------|-2-----2---------|
D|-----2------------|-------------|-3-2-0-----0-----|-----------------|
A|--3---------------|-2-----------|-----------------|-----------------|
E|------------------|-------------|-----------------|-----1-----------|


  4/4
   +E  E E E E E E E   E E E E Q  E E   E E E E E E E E   E E E E E E Q
e|-(0)---0-------0---|---0------------|---0-1-------1---|---1-----0---0-|
B|---------3-------3-|---------3--3---|-------3-------3-|---------------|
G|-----------0-------|-0--------------|-0-------2-------|-2-----2-------|
D|-------------2-----|-------0------0-|-----0-----0-----|---------------|
A|-------3-----------|-----2----------|-----------------|---------------|
E|-------------------|----------------|-----------------|-----1---------|


  4/4
   +Q   Q  E E E E   E E  E  E E E Q     E  E E E E E E E   Q.   E E E Q
e|-(0)-------------|-0----------------|--0--3-5-3-5---3p0-|-3------0---0---|
B|---------1---3---|---3-(3)---0------|-------------------|----------3-----|
G|------0----------|-------------2p0--|-(0)---5-----------|--------0-------|
D|-----------2---2-|---------0--------|-------------------|----------------|
A|------3----------|------2-----------|-------0-----0-----|------3---------|
E|-----------------|------------------|-------------------|-1--------------|


  4/4
   +Q   E E E E E E   Q  E E E E Q    E E E E E E E E   Q.   E E E Q
e|-(0)--0---0-------|---------------|-0-3-5-3-5---3-0-|-3------0---0---|
B|--------3-----3-1-|-3------0------|-----------------|----------3-----|
G|------------------|------0---2-0--|-----5-----------|--------0-------|
D|------------2-----|----0----------|-----------------|----------------|
A|------3-----------|-2-------------|-----0-----0-----|------3---------|
E|------------------|---------------|-----------------|-1--------------|


  4/4
   +Q   E E E E E E   Q  E E E E Q    E E E E E E E E   E E E E E E Q
e|-(0)--0---0-------|---------------|-----0-------0---|---------0-------|
B|--------3-----3-1-|-3------0------|---1---3-------3-|-----------3-3---|
G|------------------|------0---2-0--|-2-------2-------|-2---------------|
D|------------2-----|----0----------|-----0-----0-----|-------0---------|
A|------3-----------|-2-------------|-----------------|-----------------|
E|------------------|---------------|-----------------|---0h1-----------|


  4/4
   E E E E E E E E   E E E E E E Q   E E E E E E E E   E E E E E E  Q
e|-----0-------0---|---------0-----|-----0-------0---|---------0------|
B|---1---3-------3-|-----------3-3-|---1---3-------3-|-----------3--3-|
G|-0-------0-------|-0-------------|-2-------2-------|-2--------------|
D|-----------2-----|---0---0-------|-----0-----0-----|-------0--------|
A|-----3-----------|-----2---------|-----------------|----------------|
E|-----------------|---------------|-----------------|---0h1----------|


  4/4
   +Q   Q  E E E E   E Q  Q  Q  E    E  E E E E E E E   E E E E E E Q
e|-----------------|-0------------|-------0-------0---|---------0-------|
B|-(3)-----1---3---|------0--1--3-|-(3)-1---3-------3-|-----------3-3---|
G|------0--------0-|---0----------|--2--------2-------|-2---------------|
D|-----------2-----|--------------|-------0-----0-----|-------0---------|
A|------3----------|---2----------|-------------------|-----------------|
E|-----------------|--------------|-------------------|---0h1-----------|


  4/4
   E E E E E E E E   E E E E E E Q   E E E E E E E E   E E E E E E Q
e|-----0-------0---|---------0-----|-----0-------0---|---------0------|
B|---1---3-------3-|-----------3-3-|---1---3-------3-|-----------3-3--|
G|-0-------0-------|-0-------------|-2-------2-------|-2--------------|
D|-----------2-----|---2---0-------|-----0-----0-----|-------0--------|
A|-----3-----------|-----2---------|-----------------|----------------|
E|-----------------|---------------|-----------------|---0h1----------|


  4/4
   +Q   Q  E E E E   E E E E E E Q    E E E E E E E E   Q  E E E E Q
e|-----------------|-0--------------|-0-3-5-3-5---3p0-|-3------0---0---|
B|-(3)-----1---3---|---3-----0------|-----------------|----------3-----|
G|------0--------0-|-----------2-0--|-----5-----------|--------0-------|
D|-----------2-----|-------0--------|-----------------|------2---------|
A|------3----------|-----2----------|-----0-----0-----|----2-----------|
E|-----------------|----------------|-----------------|-0--------------|


  4/4
   +Q   E E E E E E   H    E E Q    E E E E E E E E
e|-(0)--0---0-------|-------------|-0-3-5-3-5---3---|
B|--------3-----3p0-|-3----0------|---------------5-|
G|------------------|--------2p0--|-----5-----------|
D|------------------|-0-----------|-----3-----3-----|
A|------------2-----|-------------|-----------------|
E|------0-----------|-------------|-----------------|


   H    E E Q    +Q   E E E E E E
e|-3-----------|--------------------|
B|-0----5-3-5--|-(5)--5-3-5---3-----|
G|-5-----------|------5---------5---|
D|-------------|--------------------|
A|-0-----------|------0-----0-------|
E|-------------|--------------------|


  4/4
   H    E E Q    +Q   Q  E E E E   E Q  E E E E E   E E Q  E E E E
e|-------------|-----------------|-0------------0-|-----------------|
B|-3----0------|---------1---3---|------1---3-----|-1------1---3----|
G|--------2p0--|-(0)--2----------|---2------------|---2-0-----------|
D|-------------|------0----0---0-|---3----3---3---|----------2---2--|
A|-------------|-----------------|----------------|-----3-----------|
E|-3-----------|-----------------|----------------|-----------------|


  4/4
   E E E E E E Q    +Q   Q  E E E E   E E E Q  Q.
e|-0--------------|-----------------|-0-------------|
B|---3-----0------|---------1---3---|-------1--3----|
G|-----------2-0--|-(0)--2----------|---2-----------|
D|-------0--------|------0----0---0-|-----3---------|
A|-----2----------|-----------------|---------------|
E|----------------|-----------------|---------------|


    E  E Q.   E E E   +E  E  E  E E E Q
e|--0--3-5----7-5-3-|-(3)-0-(0)-------0-|
B|-(3)--------------|---------------1---|
G|-------5----------|-------------0-----|
D|-------3----------|-----------2-------|
A|------------------|--------3----------|
E|------------------|-------------------|


  4/4
   E E E Q.   +Q     +E  E H    +Q     E E Q.   E E E   +E  E  E  E E E Q
e|-0---0-----------|-----------------|-0-3-5----7-5-3-|-(3)-0-(0)-------0---|
B|---3---3----(3)--|-(3)-1-----------|----------------|---------------1-----|
G|-----------------|-------4----(4)--|-----5----------|-------------0-------|
D|-----------------|-----------------|-----3----------|-----------2---------|
A|-----2-----------|-----------------|----------------|--------3------------|
E|-----------------|-----------------|----------------|---------------------|


  4/4
   E E E Q.   +Q     +W           E E E E E E E E   E E E E E E E E
e|-0---0-----------|------------|-----------------|------------------|
B|---3---3----(3)--|-(3)--------|-----------------|-------0----------|
G|-----------------|------------|-------0---------|-----0---------0--|
D|-----------------|------------|-----3-----3-----|---0---------0----|
A|-----2-----------|------------|---3-----3---0h3-|-2---------2------|
E|-----------------|------------|-1---------------|---------3--------|


  4/4
   E E E E E E E E   E E E E E E E E   E E E E E E E E
e|-----------------|---------0-------|-----------------
B|-------1---------|-------1---1-----|-----------------
G|-----2---2---2---|-----0-------0---|-------0---------
D|---2-------2-----|---2-----------2-|-----3-----3-----
A|-0-------------2-|-3---------------|---3-----3---0h3-
E|-----------------|-----------------|-1---------------


  4/4
   E E E E E E E E   E E E E E E E E   E E E Q  E E E   Q.   E E Q  E
e|-----------------|-----------------|-------0----0-3-|-5----7-5-3--0--|
B|-------0---------|-------1---------|----------------|----------------|
G|-----0---------0-|-----2---2---2---|-----0----------|-5--------------|
D|---0---------0---|---2-------2-----|---2------------|-3--------------|
A|-2---------2-----|-0-------------2-|-3--------------|----------------|
E|---------3-------|-----------------|----------------|----------------|


  4/4
    E  E E E Q  E E   E H    +E  E E   +H     +Q   E E
e|-(0)-------0--0---|-0--------------|-------------0-3-|
B|---------1------3-|---3----(3)-1---|-----------------|
G|-------0----------|--------------4-|-(4)----(4)------|
D|-----2------------|----------------|-----------------|
A|--3---------------|-2--------------|-----------------|
E|------------------|----------------|-----------------|


   Q.   E E Q  E    E  E E E Q  E E
e|-5----7-5-3--0-|-(0)-------0--0-----|
B|---------------|---------1------3---|
G|-5-------------|-------0------------|
D|-3-------------|-----2--------------|
A|---------------|--3-----------------|
E|---------------|--------------------|


  4/4
   E E +H     +Q     E E E E E E E E   E E E E Q  Q    +Q   E E E E E E
e|-0---------------|-----1-------1---|---1-----0--0--|-(0)--0-------0----|
B|---3-(3)----(3)--|-------3-------3-|---------------|--------3-------3--|
G|-----------------|---------2-------|-2-----2-------|----------0--------|
D|-----------------|-3-2-0-----0-----|---------------|------------2------|
A|-2---------------|-----------------|---------------|------3------------|
E|-----------------|-----------------|-----1---------|-------------------|


  4/4
   E E E E Q  E E   E E E E E E E E   E E E E Q  Q    +Q    Q  E E E E
e|---0------------|---0-1-------1---|---1-----0--0--|-(0)--------------|
B|---------3--3---|-------3-------3-|---------------|----------1---3---|
G|-0--------------|-0-------2-------|-2-----2-------|-------0----------|
D|-------0------0-|-----0-----0-----|---------------|------------2---2-|
A|-----2----------|-----------------|---------------|-------3----------|
E|----------------|-----------------|-----1---------|------------------|


                  Q=120                                Q=115
  4/4
   Gtr I
   E E E E E E Q    +Q   E E E E E E   E E E E E E E E   E E E E E E E E
e|-0--------------|------5-----3p0---|-----3-----1p0---|-----3-----1p0----|
B|---3-----0------|----------0-----3p|=0-------0-----3-|-1p0-----0-----3--|
G|-----------2p0--|-(0)----0---------|---0---0---------|-------0----------|
D|-------0--------|------3-----------|-----------------|------------------|
A|-----2----------|------------------|-----------------|------------------|
E|----------------|------------------|-----3-----------|-----3------------|


                                     Q
   E E E E E E E E   E E E E E E E E
e|-----3-----1p0---|-----5-----3-2p0-|
B|-1p0-----------3-|-1p0-----0-------|
G|---------0-------|-----------------|
D|-------2---------|-------0---------|
A|-----0-----------|-----------------|
E|-----------------|-----2-----------|


  =110
   E E E E E E E E   E E  E E H     +H    +H
e|-----5-----3-2p0-|------0---0---|-(0)---(0)--*|
B|-3-------0-------|-3----3-3-----|------------*|
G|---5-------------|---5--2-------|------------*|
D|-------0---------|------3-------|------------*|
A|-----------------|--------------|------------*|
E|-----2-----------|--------------|------------*|

 
************************************

| (n)  Ghost note
| h    Hammer-on
| p    Pull-off 

************************************

            
            
Suggest correction
Creating personal tab
Creating personal tab
You can edit any tab online and save it as your Personal.

You can edit, replace or remove any tab part or add personal notes – all changes will be seen only by you.

Personal tabs can be accessed anytime from any device, even offline.
Learn more »
comments
print report bad tab
2 comments total.
+2 reply
akhauri.yash 31 Apr 08, 2013 08:34 AM

Awesome tabs. Almost perfect. Loved it... Thank you. Really appreciate it.
Also, people, the capo is on 5 :)

0 reply
GuitarRealm 256 Nov 23, 2015 07:10 AM

Nice work! 5 stars! :)

guest
Wanna post a correction for this tab? Suggest correction