Oops, an error
Loading. Please wait.

Rainy Day Tab

3,463 views 3 this week
no commentswrite comment
1 2 3 4 5
x 3
add to favorites
launch autoscroll
font size
0
reset
how to read this tab
guitar tuner
Autoscroll
slow
fast
+/-
esc
set tempo
stop
Help us to improve Ultimate-Guitar.com Take our survey!
×
Author
RAINY DAY
COLDPLAY

Album: Viva La Vida -Or- Death And All His Friends

Tabbed by: TyM218
Tuning: Standard (EADGBe) - NO CAPO



VERSE:
e|----11---------------------------------------------------------------------|
B|-------11--11h13-----------------------------------------------------------|
G|-8----------------10/8-----------------------------------------------------|
D|---------------------------------------------------------------------------|
A|---------------------------------------------------------------------------|
E|---------------------------------------------------------------------------|

CHORUS:
e|---------------------------------------------------------------------------|
B|----11--13-----------------------------------------------------------------|
G|-8---------8--10/8--10/8---------------------------------------------------|
D|---------------------------------------------------------------------------|
A|---------------------------------------------------------------------------|
E|---------------------------------------------------------------------------|

SOLO:
e|---------------------------------------------------------------------------|
B|-11---9---8---6------------------------------------------------------------|
G|----8---8---8---8------8-------8-------------------------------------------|
D|------------------6~-8---8-6-8---8-----------------------------------------|
A|---------------------------------------------------------------------------|
E|---------------------------------------------------------------------------|

Lyrics:

VERSE:
Then there was rain
The sky wore a veil of gold and green
At night it was the bright of the moon with me
Time is just floating away

Then there was rain
The sound foundations are crumbling
Through the ground comes a bit of a-tumbling
And time was just floating away
What could we say?
And we can listen

CHORUS:
Oh rainy day, come 'round
Sometimes i just want it to slow down
And we're separated now, i'm down
But i love it when you come over to the house
I love it when you come over to my house

SOLO

VERSE:
Then there was rain
I spent the night with the Queen Of Spain
My lonely little heart would have broke again
Times were vicious
Saying deeper the knife goes in I know you win
You win what with less than when you begin
Deeper than the knife goes in
oh oh oh oh oh oh oh oh ohhhhh

CHORUS:
Oh rainy day, come 'round
Sometimes i just want it to slow down
And we're separated now, i'm down
But i love it when you come over to the house
I love it when you come over to my house

aaaaaahhhh aaaaahhhhhh
aaaaaahhhh aaaaahhhhhh

But i love it when you come over to the house
I love it when you come over to my house(x2)
Suggest correction
Give kudos to tab author, rate the tab!
1 2 3 4 5
comments
print report bad tab
guest
You may want to rate the tab now too:
select rating
Wanna post a correction for this tab? Suggest correction