Oops, an error
Loading. Please wait.

See You Soon Tab

version 5
version 5
57,091 views 81 this week
6 commentsread comments
1 2 3 4 5
x 20
add to favorites
launch autoscroll
font size
0
reset
how to read this tab
guitar tuner
Autoscroll
slow
fast
+/-
esc
set tempo
stop
Help us to improve Ultimate-Guitar.com Take our survey!
×
Author
Difficulty
novice
Tabbed by: Makka1993
 
***Please Note to slide your fingers up or down the strings when changing frets***

[Intro]
e|-----0--------0--------0---------0---|
B|--5---5---7----9----4---4---2-4---4--|
G|--6-------8----9----4-------4--------|
D|-------------------------------------|
A|--4-------6----7----2-------2--------|
E|-------------------------------------| x3

e|------0--------0-------0---------0---|
B|--10---10---9---9---4---4---2-4---4--|
G|--11--------9-------4-------4--------|
D|-------------------------------------|
A|--9---------7-------2-------2--------|
E|-------------------------------------|

[Verse]
e|-----0--------0--------0---------0---|
B|--5---5---7----9----4---4---2-4---4--|
G|--6-------8----9----4-------4--------|
D|-------------------------------------|
A|--4-------6----7----2-------2--------|
E|-------------------------------------| x4

[Chorus]
e|-------------0-----------0---------0--|
B|----------5---5---7---4---4---2-4---4-|
G|--2/8-88--6-------8---4-------4-------|
D|--2/8-8-------------------------------|
A|----------4-------6---2-------2-------|
E|--------------------------------------|

Order:
[Intro]
[Verse]
[Chorus]
[Verse]
[Chorus]

[Outro]
(Part 2 of intro)

 
************************************

| /  Slide up

************************************
Suggest correction
comments
print report bad tab
6 comments total. Showing first comments.
+1 reply
Maitinin 19,542 Jan 22, 2007 11:44 AM

you're right - it's 90% correct

+3 reply
r.madrid 20 Oct 03, 2009 05:46 PM

I think its just fine. I mean, who wants to play EXACTLY the way they play it?

+2 reply
camillamazilla 184 Jan 31, 2010 04:11 AM

Yep, it's not a totally perfect tab, but it may be impossible to do a perfect tab of this song in regular tuning. However, i've been looking for "see you soon" tab in regular tuning and this tab is as good as regular-tuning-tab of this song can be. 5 stars for that, this tab does its job.

guest
You may want to rate the tab now too:
select rating
Wanna post a correction for this tab? Suggest correction