Oops, an error
Loading. Please wait.

See You Soon Tab

version 7
version 7
10,722 views 57 this week
1 commentread comment
1 2 3 4 5
excellent!
x 3
add to favorites
launch autoscroll
font size
0
reset
how to read this tab
guitar tuner
Tab Pro tools
  • play this tab
  • loop segment
  • change instrument
  • show fretboard
  • metronome
×
Best way to learn
"See You Soon"
Autoscroll
slow
fast
+/-
esc
set tempo
stop
Contributor
Difficulty
Tuning
novice
D G D G B D
                       Coldplay - See You Soon

   Tabbed by: Melvyn B.(15)
   Questions: majorityagainst@web.de

|  Yes, this Tab is refers to the Tab "See You Soon (Ver 2)"
|  and the Video
|  http://www.youtube.com/watch?v=cqepYajNxkk                    
|  its for the people(including me) who can lern it better with a grid. 
|  It's 100% right!  
|
|
|  - Tuning: d----
|            B----
|            D----
|            D----
|            G----
|            E----
|
|  - CAPO 2
|
|
|  C#m        x40030
|  Bsus4/D#   x60050
|  E          x70070
|  Badd11     x20020
|  F#m        x90080
|  A          x09009
|  Amaj7      x04004
|  Aadd9      x07007
|  A5         x00080
|  Amaj7*     x00004
|
| 
|
|////////////////////////////////////////////////////////////////////////////



1  INTRO  

d|--0-0----0----0----0-0-----0----------------------|
B|--3--3---5----7----2--2-0h2--2--------------------|
D|--0------0----0----0------------------------------|[x3]
D|--0------0----0----0------------------------------|
G|--4------6----7----2------------------------------|
E|--x------x----x----x------------------------------|




   1.2 (playing after 3. time Intro)

   d|--0-0----0-0---0-0-----0---------------------------|
   B|--8--8---7--7--2--2-0h2--2-------------------------|
   D|--0------0-----0-----------------------------------|[x1]
   D|--0------0-----0-----------------------------------|
   G|--9------7-----2-----------------------------------|
   E|--x------x-----x-----------------------------------|




2  VERSE 

d|--0-0----0----0----0-0----------------------------|
B|--3--3---5----7----2--2-0h2-3-2-------------------|
D|--0------0----0----0------------------------------|[x4]
D|--0------0----0----0------------------------------|
G|--4------6----7----2------------------------------|
E|--x------x----x----x------------------------------|




3  CHORUS

d|--2s---9----4----7----0------0--------------------|
B|--0----0----0----0----7------2--------------------|
D|--0----0----0----0----0------0--------------------|[x3]
D|--2s---9----4----7----0------0--------------------|
G|--0----0----0----0----7------2--------------------|
E|--x----x----x----x----x------x--------------------|



 
   3.2 (playing after 3. time Chorus)

   d|--0---4---------------------------------------------|
   B|--8---0---------------------------------------------|
   D|--0---0---------------------------------------------|[x1]
   D|--0---0---------------------------------------------|
   G|--0---0---------------------------------------------|
   E|--x---x---------------------------------------------|



 
4  END
d|--0---0---0-0-----0-----(0)---|
B|--8---7---2--2-0h2--2---(0)---|
D|--0---0---0-------------(0)---|[x1]
D|--0---0---0-------------(0)---|
G|--0---7---2-------------(0)---|
E|--x---x---x--------------x----|

comments
We did not receive enough feedback on this tab! Please rate:
print report bad tab
1 2 3 4 5
1 comment total.
0 reply
rishav.misterio619 wrote on May 15 2016, 11:59 am

check out the chords in this video - https://www.youtube.com/watch?v=uVzZYghvCsc

I want to post or [tab]
guest
You may want to rate the tab now too:
select rating
Please do not post tabs as comments. Select "correction" instead!