Oops, an error
Loading. Please wait.

See You Soon Tab

version 8
version 8
1,473 views 15 this week
no commentswrite comment
1 2 3 4 5
2 more votes to show rating
add to favorites
launch autoscroll
font size
0
reset
how to read this tab
guitar tuner
Autoscroll
slow
fast
+/-
esc
set tempo
stop
Help us to improve Ultimate-Guitar.com Take our survey!
×
Author
Difficulty
intermediate
Here is the complete version of the correct tab. So with the picks and hammer-ons,
But i'm no pro so maybe it isn't correct anymore.

tunning: F#,G,D,D,B,D

capo at second fret

CHORDS:
 C#m:       X40030
 Bsus4/D#:  X60050
 E:         X70070
 Badd11:    X20020
 F#m7:      X80070
 A:         X09009
 Amaj7:     X04004
 Aadd9:     X07007
 A5:        X00080
 Amaj7*:    X00004

intro (my advise is to do the strumming with your thumb during the whole song):

Part 1 (3X):
____C#m________________Bsus4/D#____E_________Badd11__________________________
D [--0---0-----------0-----------0-----------0---0-----------0----0-----------|
B [--3-----3----(3)--3/5-----(5)-5/7-----(7)-2-----2-----(2)-0H2----2---------|(2)
D [--0-0-----(0)-----0---(0)-----0---(0)-----0-0-----(0)-----0--0-----(0)-----|
D [--0-0-------------0-----------0-----------0-0-------------0--0-------------|
G [--4-4-------------4/6---------6/7---------2-2-------------2--2-------------|
F#[--X-X-------------X-----------x-----------X-X-------------X--X-------------|

Part 2 (1X)
____F#m7_____________E_______________Badd11__________________________________
D [--0---0-----------0---0-----------0---0-----------0----0-----------------]
B [--8-----8-----(8)-7-----7-----(7)-2-----2-----(2)-0H2----2-----(2)-------]
D [--0-0-----(0)-----0-0-----(0)-----0-0-----(0)-----0--0-----(0)-----------]
D [--0-0-------------0-0-------------0-0-------------0--0-------------------]
G [--9-9-------------7-7-------------2-2-------------2--2-------------------]
F#[--X-X-------------X-X-------------X-X-------------X--X-------------------]

_____Badd11________________________________
D [--0----0-----------0----0--------------]
B [--0H2----2-----(2)-0H2----2-----(2)----]
D [--0--0-----(0)-----0--0-----(0)--------]
D [--0--0-------------0--0----------------]
G [--2--2-------------2--2----------------]
F#[--X--X-------------X--X----------------]

Verse:
part 1 (4X):   E
____C#m______Bsus4/D#__________Badd11___________________________
D [--0---0---0-0---0---0-------0----0-----------0----0----------]
B [--3-----3-5-7-----7-----(7)-0------2-----(2)-0H2----2-----(2)]
D [--0-0-----0-0-0-----(0)-----0--0-----(0)-----0--0-----(0)----]
D [--0-0-----0-0-0-------------0--0-------------0--0------------]
G [--4-4-----6-7-7-------------2--2-------------2--2------------]
F#[--X-X-----X-x---------------X--X-------------X--X------------]


Chorus:

       A
_____Amaj7____Amaj7____Aadd9________Badd11_________
D [--4/9-9-9\-4---(4)/-7---(4)---4--0---0----------]
B [--0---0-0\-0-0----/-0-0-----0-0--2-----2-----(2)]
D [--0---0-0\-0------/-0---------0--0-0-----(0)----]
D [--4/9----\-4------/-7------------0-0------------]
G [--0------\-0------/-0------------2-2------------]
F#[--X------\-X------/-X------------X-X------------]

       A
_____Amaj7____Amaj7____Aadd9__________A5_______
D [--4/9-9-9\-4---(4)/-7---(4)---4----0---(0)-0]
B [--0---0-0\-0-0----/-0-0-----0-0----8-8-----8]
D [--0---0-0\-0------/-0---------0----0-------0]
D [--4/9----\-4------/-7--------------0--------]
G [--0------\-0------/-0--------------0--------]
F#[--X------\-X------/-X--------------X--------]

       A
_____Amaj7____Amaj7____Aadd9________Badd11_________
D [--4/9-9-9\-4---(4)/-7---(4)---4--0---0----------]
B [--0---0-0\-0-0----/-0-0-----0-0--2-----2-----(2)]
D [--0---0-0\-0------/-0---------0--0-0-----(0)----]
D [--4/9----\-4------/-7------------0-0------------]
G [--0------\-0------/-0------------2-2------------]
F#[--X------\-X------/-X------------X-X------------]

____A5_______________________Amaj7*_________________
D [-0---0-0-----0---0-0------4---4-4-----4---4-4----]
B [-8-8---8---8-8-8---8---8--0-0---0---0-0-0---0---0]
D [-0-----0-0---0-----0-0----0-----0-0---0-----0-0--]
D [-0-----------0------------0-----------0----------]
G [-0-----------0------------0-----------0----------]
F#[-X-----------X------------X-----------X----------]

[note: between the chorus and the verse ]
[is a link part, but that is exactly the]
[same as the first part of the intro.   ]
[The first link is 2X the first part of ]
[the intro and the second is 4X the     ]
[first part of the intro                ]

You end the song with playing the second part of the intro 4x
Suggest correction
Give kudos to tab author, rate the tab!
1 2 3 4 5
comments
print report bad tab
guest
You may want to rate the tab now too:
select rating
Wanna post a correction for this tab? Suggest correction