Oops, an error
Loading. Please wait.

Shiver Tab

version 1
version 1

Acoustic

Whole song

Interactive

56,627 views 45 this week
7 commentsread comments
1 2 3 4 5
x 12
add to favorites
launch autoscroll
font size
0
reset
how to read this tab
guitar tuner
backing track
0:00
0:00
Autoscroll
slow
fast
+/-
esc
set tempo
stop
Acoustic rhythm

[Chorus]
e|------0------0------0------0          ------0------0------------------|
B|------0------0------0------0          ------0------0------------------|
G|------8------X------6------1  (x3)    ------6------X------------------|
D|------9------4------7------2          ------7------6------------------|
A|------9------4------7------2          ------7------6------------------|
E|------7------2------5------0          ------5------4------------------|

 [Verse]
 SO I LOOK IN YOUR DIRECTION…
e|------0------------0------|
B|------9------------0------|
G|------9------------8------|
D|------9------------9------|   (x2)
A|------7------------9------|
E|------7------------7------|

 BUT ON AND ON…
e|------4------------0------------4------------0------------0------|
B|------5------------0------------5------------0------------0------|
G|------6------------3------------6------------8------------8------|
D|------6------------2------------6------------9------------7------|
A|------4------------4------------4------------9------------9------|
E|------X------------2------------X------------7------------7------|

 [Pre-Chorus]
 DID SHE WANT ME TO CHANGE…
e|------4------6------7------6------4------6------7------9------7------6-|
B|------4------8------7------8------4------8------7------9------7------8-|
G|------4------8------8------8------4------8------8------10-----8------8-|
D|------6------8------9------8------6------8------9------11-----9------8-|
A|------6------6------9------6------6------6------9------11-----9------6-|
E|------4------6------7------6------4------6------7------9------7------6-|

e|------4------|
B|------4------|
G|------4------|
D|------6------|
A|------6------|
E|------4------|

[Chorus]
e|------0------0------0------0          ------0------0------------------|
B|------0------0------0------0          ------0------0------------------|
G|------8------X------6------1  (x3)    ------6------X------------------|
D|------9------4------7------2          ------7------6------------------|
A|------9------4------7------2          ------7------6------------------|
E|------7------2------5------0          ------5------4------------------|

 [Verse]
 SO I LOOK IN YOUR DIRECTION…
e|------0------------0------|
B|------9------------0------|
G|------9------------8------|
D|------9------------9------|   (x2)
A|------7------------9------|
E|------7------------7------|

 BUT ON AND ON…
e|------4------------0------------4------------0------------0------|
B|------5------------0------------5------------0------------0------|
G|------6------------3------------6------------8------------8------|
D|------6------------2------------6------------9------------7------|
A|------4------------4------------4------------9------------9------|
E|------X------------2------------X------------7------------7------|

 [Pre-Chorus]
 DID SHE WANT ME TO CHANGE…
e|------4------6------7------6------4------6------7------9------7------6
B|------4------8------7------8------4------8------7------9------7------8
G|------4------8------8------8------4------8------8------10-----8------8
D|------6------8------9------8------6------8------9------11-----9------8
A|------6------6------9------6------6------6------9------11-----9------6
E|------4------6------7------6------4------6------7------9------7------6

e|------4------|
B|------4------|
G|------4------|
D|------6------|
A|------6------|
E|------4------|

[Chorus]
e|------0------0------0------0          ------0------0------------------|
B|------0------0------0------0          ------0------0------------------|
G|------8------X------6------1  (x3)    ------6------X------------------|
D|------9------4------7------2          ------7------6------------------|
A|------9------4------7------2          ------7------6------------------|
E|------7------2------5------0          ------5------4------------------|

[Bridge]
                AND I’LL ALWAYS BE WAITING FOR YOU… 
e|------7--------------0------------0--------7------|
B|------9--------------0------------0--------9------|
G|------9--------------8------------6--------9------|
D|------9--------------9------------7--------9------|
A|------7--------------9------------7--------7------|
E|------7--------------7------------5--------7------|

[Chorus]
e|------0------0------0------0          ------0------0------------------|
B|------0------0------0------0          ------0------0------------------|
G|------8------X------6------1  (x3)    ------6------X------------------|
D|------9------4------7------2          ------7------6------------------|
A|------9------4------7------2          ------7------6------------------|
E|------7------2------5------0          ------5------4------------------|

[LAST CHORD]
SO I LOOK IN YOUR DIRECTION…
e|------0------|
B|------9------|
G|------9------|
D|------9------|
A|------7------|
E|------7------|

************************************

| x Dead note

************************************
Suggest correction
comments
print report bad tab
7 comments total. Showing first comments.
0 reply
habetw4 10 Aug 10, 2005 08:00 PM

how do you play 0 9 9 9 7 7

0 reply
Ultra Spidey 20 Nov 04, 2005 05:42 AM

habetw4: Let's say 'a' is your thumb and 'e' is your little finger. Put your 'b' on the last 2 strings and 'c','d' and 'e' on the 4th, 3rd and 2nd string respectively.
Good Luck!

0 reply
Kinnba 10 Mar 01, 2008 10:38 AM

I really don't think I'd make it that complicated.

guest
You may want to rate the tab now too:
select rating
Wanna post a correction for this tab? Suggest correction