Oops, an error
Loading. Please wait.

Shiver Tab

version 5
version 5

Whole song

Interactive

4,186 views 3 this week
1 commentread comment
1 2 3 4 5
accurate
x 3
add to favorites
launch autoscroll
font size
0
reset
how to read this tab
guitar tuner
Tab Pro tools
  • play this tab
  • loop segment
  • change instrument
  • show fretboard
  • metronome
Autoscroll
slow
fast
+/-
esc
set tempo
stop
Contributor
Difficulty
Tuning
intermediate
B E A D F# B
-------------------------------------------------------------------------------
                             SHIVER - Coldplay
-------------------------------------------------------------------------------
Tabbed by:  Jeremy Bradshaw
Email:

Tuning:  E A B G b e-flat (same as tuning for Yellow)

These are the chords (in order) for the intro rhythm part which is repeated throughout 
entire song a lot:

e|--0--1--0--0---------------------------------------------------------------|
B|--0--0--0--0---------------------------------------------------------------|
G|--8--2--6--4---------------------------------------------------------------|
D|--0--2--5--0---------------------------------------------------------------|
A|--9--0--0--6---------------------------------------------------------------|
E|--7--2-(5)-4---------------------------------------------------------------|

The other part of the song:

e|--5--3--5--3---------------------------------------------------------------|
B|--0--0--0--0---------------------------------------------------------------|
G|--4--4--4--4---------------------------------------------------------------|
D|--5--5--5--5---------------------------------------------------------------|
A|--+--+--+--+---------------------------------------------------------------|
E|--0--0--0--0---------------------------------------------------------------|

The intro's lead part is like this:

e|---------------------------------------------------------------------------|
B|--2/4-4-4-4-2-2-2/5-5-5-5-2-2-2~4-4-4-4-2-0---------0-2--------------------|
G|--------------------------------------------1-1-1-1------------------------|
D|---------------------------------------------------------------------------|
A|---------------------------------------------------------------------------|
E|---------------------------------------------------------------------------|

e|------------------------------6-6-6-6-8-8-5--------------------------------|
B|--2/4-4-4-4-2-2-2/5-5-5-5-5-5----------------2--2/4-0----------------------|
G|---------------------------------------------------------------------------|
D|---------------------------------------------------------------------------|
A|---------------------------------------------------------------------------|
E|---------------------------------------------------------------------------|

The rest is easy to figure out once you know the tuning and these chords.


| /  slide up
| \  slide down
| h  hammer-on
| p  pull-off
| ~  vibrato
| +  harmonic
| x  Mute note
===============================================================================
comments
We did not receive enough feedback on this tab! Please rate:
print report bad tab
1 2 3 4 5
1 comment total.
0 reply
jrochet wrote on September 11 2009, 05:26 pm

I'm waiting for my edit to be approved, but the second chord should really be like this:
e|---1---|
B|---0---|
G|---2---|
D|---2---|
A|---0---|
E|---2---|

I want to post or [tab]
guest
You may want to rate the tab now too:
select rating
Please do not post tabs as comments. Select "correction" instead!