Oops, an error
Loading. Please wait.

Sleeping Sun Chords

version 1
version 1

Whole song

Interactive

5,201 views 18 this week
2 commentsread comments
1 2 3 4 5
accurate
x 5
add to favorites
launch autoscroll
font size
0
reset
transpose
0
reset
- display chords -
guitar tuner
Tab Pro tools
  • play this tab
  • loop segment
  • change instrument
  • show fretboard
  • metronome
Autoscroll
slow
fast
+/-
esc
set tempo
stop
Difficulty
novice
I'm really not that accurate of a tab finder but i did my best. :P
Brought to you by Yakir Rabinovitch from Israel!

=================================

Capo on 1st !!!

Intro:

(Regular tuning)

--------------------------------------
----------1---3~1--3----3--3--3--1h3--
------2-------------------------------
--0-----------------------------------
--------------------------------------
--------------------------------------

Verse:

D             Am
Climb up your mountain, 

C            G
Nineteen and countin' 

D            Am
You have got seven, 

C          G
I have got one 


Chorus: The same.

===========================

Enjoy people!!
Keep on playing Coldplay!!.... :-)
comments
print report bad tab
2 comments total.
+1 reply
RS-GUITARIST wrote on October 9 2006, 11:28 am

this song is awsome

0 reply
andrew7667 wrote on December 7 2006, 11:47 pm

the little guitar riff is better played

--------------------------------------
----------1h2h3----3--3--1h3p1--------
--------------------------------------
--0-----------------------------------
--------------------------------------
--------------------------------------

There's a little more to it than that, but that sounds better (at least to me).

It's also not Am. I'll try and figure out what it is in a moment though.

I want to post or [tab]
guest
You may want to rate the tab now too:
select rating
Please do not post tabs as comments. Select "correction" instead!