Oops, an error
Loading. Please wait.
We have Chord Pro version of Something Just Like This.
It's the closest thing you can get to the original song and it has interactive parts. Check out the tab »
×
4,795 views 147 this week
no commentswrite comment
1 2 3 4 5
x 4
add to favorites
×
Save as Personal and add changes to this tab that will be seen only by you. Learn more ›
×
You can save this tab as Personal to edit and correct it or add notes. All changes will be seen only by you. Learn more »
launch autoscroll
font size
0
reset
guitar tuner
edit
Autoscroll
slow
fast
+/-
esc
set tempo
stop
Author
[Verse]
00.28 - til chorus 
G|---------------------------------------------------------------------------|
D|---------------------------------------------------------------------------|
A|----0~-----------------0~-----------2~-------------------------------------|
E|-------------3~------------------------------------------------------------|

[Chorus]
G|---------------------------------------------------------------------------|
D|-------------------------------------------1-------------------------------|
A|---0-----------1-0-------7-5---------2-2-2---2-2---------------------------|
E|-------------3---------5---------------------------------------------------|

[Verse]
G|---------------------------------------------------------------------------|
D|---------------------------------------------------------------------------|
A|----0~-----------------0~-----------2~-------------------------------------|
E|-------------3~------------------------------------------------------------|

[Chorus]
G|---------------------------------------------------------------------------|
D|-------------------------------------------1-------------------------------|
A|---0-----------1-0-------7-5---------2-2-2---2-2---------------------------|
E|-------------3---------5---------------------------------------------------|

[Post-Chorus]
G|---------------------------------------------------------------------------|
D|-----Rest Til 02.38--------------------------------------------------------|
A|---------------------------------------------------------------------------|
E|---------------------------------------------------------------------------|

G|---------------------------------------------------------------------------|
D|---------------------------------------------------------------------------|
A|---0-0---------0-0---2-2---------------------------------------------------|  x4
E|---------3-3---------------------------------------------------------------|

G|---------------------------------------------------------------------------|
D|---------------------------------------------------------------------------|
A|---0-0-0-0-0-------0-0-0-0-0-2-2-2-----------------------------------------|  til chorus
E|-------------3-3-3---------------------------------------------------------|

[Chorus]
G|---------------------------------------------------------------------------|
D|-------------------------------------------1-------------------------------|
A|---0-----------1-0-------7-5---------2-2-2---2-2---------------------------|
E|-------------3---------5---------------------------------------------------|

[Outro]
rest or you can play chorus for the last time



************************************

| ~  Vibrato
 

************************************

            
            
Suggest correction
Creating personal tab
Creating personal tab
You can edit any tab online and save it as your Personal.

You can edit, replace or remove any tab part or add personal notes – all changes will be seen only by you.

Personal tabs can be accessed anytime from any device, even offline.
Learn more »
comments
print report bad tab
guest
You may want to rate the tab now too:
select rating
Wanna post a correction for this tab? Suggest correction