Oops, an error
Loading. Please wait.

Sparks Bass Tab

version 4
version 4

Interactive

875 views 3 this week
no commentswrite comment
1 2 3 4 5
please rate
add to favorites
launch autoscroll
font size
0
reset
guitar tuner
Autoscroll
slow
fast
+/-
esc
set tempo
stop
Help us to improve Ultimate-Guitar.com Take our survey!
×
Contributor
Difficulty
intermediate
This is just a few minor corrections to the original tab.  Careful not to confuse the 
piano and bass notes.


Intro:

G|---------------------|
D|---------------------|
A|---16h18p16----------|
E|-9~-------16-18-16---|

Verse:

G|--------------------------------------------------------|
D|-----------------------------------6-6---6-6------------|
A|--4-6-1--4-6-1---6--6---8p4--6-8-4-----4-----6---6-8-4--|
E|---------------1----------------------------------------|

Chorus

G|--------------------------------------|
D|--------------------------------------|
A|--6-4-11-33-44-66-1----11-33-44-66-8--|
E|--------------------------------------|

Intro x4
Verse x1
Chorus x1
Intro x4
Verse x1
Chorus x1
Intro x8

| /  slide up
| \  slide down
| h  hammer-on
| p  pull-off
| ~  vibrato
| +  harmonic
| x  Mute note
comments
We did not receive enough feedback on this tab! Please rate:
print report bad tab
1 2 3 4 5
I want to post or [tab]
guest
You may want to rate the tab now too:
select rating
Please do not post tabs as comments. Select "correction" instead!