Oops, an error
Loading. Please wait.

Sparks Bass Tab

version 5
version 5

Interactive

496 views 3 this week
no commentswrite comment
1 2 3 4 5
3 more votes to show rating
add to favorites
launch autoscroll
font size
0
reset
guitar tuner
Autoscroll
slow
fast
+/-
esc
set tempo
stop
Help us to improve Ultimate-Guitar.com Take our survey!
×
Author
Difficulty
intermediate
Intro: 

G|-------------|-------| 
D|-13-11-------|-------| 
A|-------11-13-|-11----| 
E|-------------|----9--| 

Verse: 

G|----------|------------|---------|---------| 
D|----------|------------|---------|---------| 
A|------6---|------6-----|-6---6-8-|-----6-8-| 
E|--9----6--|--9----6--1-|---------|-9--9----| 

G|-------------|-------------|---------|-----------| 
D|-------------|-------------|---------|-----------| 
A|-------11-11-|-------11-11-|-6---6-8-|-------4---| 
E|--9--9-------|--9--9-------|---------|-9---9---4-| 

Chorus: (say aaaaah........) 

G|-------------------|-----| 
D|-------------------|-----| 
A|-------------------|-13--| 
E|-6-6--8-8--9---11--|-----| 
Suggest correction
Give kudos to tab author, rate the tab!
1 2 3 4 5
comments
print report bad tab
guest
You may want to rate the tab now too:
select rating
Wanna post a correction for this tab? Suggest correction