Oops, an error
Loading. Please wait.

Spies Bass Tab

version 1
version 1

Whole song

Interactive

3,510 views 6 this week
no commentswrite comment
1 2 3 4 5
please rate
add to favorites
launch autoscroll
font size
0
reset
guitar tuner
Autoscroll
slow
fast
+/-
esc
set tempo
stop
Help us to improve Ultimate-Guitar.com Take our survey!
×
Author
                                    Spies                                       


                                                                        Coldplay
Bass



G||-------|-------|-------|-------|-------|-------|-------|-------|-------|
D||-------|-------|-------|-------|-------|-------|-------|-------|-------|
A||-------|-------|-------|-------|-------|-------|-------|-------|-------|
E||-------|-------|-------|-------|-------|-------|-------|-------|-------|


-------|-------|-------|-------|-------|-------|-------|-------|-------|-------|
-------|-------|-------|-------|-------|-------|-------|-------|-------|-------|
-------|-------|-------|-------|-------|-------|-------|-------|-------|-------|
-------|-------|-------|-------|-------|-------|-------|-------|-------|-------|


                           |-3| |-3| 3      |3|  3  
                  E  E  E  E  S E  S E  S S S E  S  
-------|-------|-----------------------------------|
-------|-------|-----------------------------------|
-------|-------|--4--4-----7--6-4------------------|
-------|-------|-------------------7-7--L---4-5--5-|


           |-3| |-3| 3      |3|  3             |-3| |-3| 3      |3|  3  
  E  E  E  E  S E  S E  S S S E  S    E  E  E  E  S E  S E  S S S E  S  
-----------------------------------|-----------------------------------|
-----------------------------------|-----------------------------------|
--4--4-----7--6-4------------------|--4--4-----7--6-4------------------|
-------------------7-7--L---4-5--5-|-------------------7-7--L---4-5--5-|


           |-3|                         |-3| |-3| 3      |3|  3  
  E  E  E  E  S E  E  E  E     E  E  E  E  S E  S E  S S S E  S  
----------------------------|-----------------------------------|
----------------------------|-----------------------------------|
--2--2--------2-2--------2--|--4--4-----7--6-4------------------|
-----------4----------4-----|-------------------7-7--L---4-5--5-|


           |-3| |-3| 3      |3|  3             |-3| |-3| 3      |3|  3  
  E  E  E  E  S E  S E  S S S E  S    E  E  E  E  S E  S E  S S S E  S  
-----------------------------------|-----------------------------------|
-----------------------------------|-----------------------------------|
--4--4-----7--6-4------------------|--4--4-----7--6-4------------------|
-------------------7-7--L---4-5--5-|-------------------7-7--L---4-5--5-|


           |-3|                                                            
  E  E  E  E  S E  E  E  E     H        S S Q.        H        S S Q.      
----------------------------|----------------------|----------------------|
----------------------------|----------------------|----------------------|
--2--2--------2-2--------2--|----------------------|----------------------|
-----------4----------4-----|--2--------2---2------|--0--------0---0------|


  H        S S Q.        H        S S Q.        H        S S Q.      
----------------------|----------------------|----------------------|
----------------------|----------------------|----------------------|
----------------------|----------------------|----------------------|
--5--------5---5------|--4--------4---4------|--2--------2---2------|


  H        S S Q.        H        S S Q.        H        S S Q.      
----------------------|----------------------|----------------------|
----------------------|----------------------|----------------------|
----------------------|----------------------|----------------------|
--0--------0---0------|--5--------5---5------|--4--------4---4------|


  H        S S Q.        H        S S Q.        H        S S Q.      
----------------------|----------------------|----------------------|
----------------------|----------------------|----------------------|
----------------------|----------------------|----------------------|
--2--------2---2------|--4--------4---4------|--5--------5---5------|


  H        S S Q.        H        S S Q.        H        S S Q.      
----------------------|----------------------|----------------------|
----------------------|----------------------|----------------------|
----------------------|----------------------|----------------------|
--4--------4---4------|--2--------2---2------|--0--------0---0------|


  H        S S Q.        H        S S Q.      
----------------------|----------------------|
----------------------|----------------------|
----------------------|----------------------|
--5--------5---5------|--4--------4---4------|


           |-3| |-3| 3      |3|  3             |-3| |-3| 3      |3|  3  
  E  E  E  E  S E  S E  S S S E  S    E  E  E  E  S E  S E  S S S E  S  
-----------------------------------|-----------------------------------|
-----------------------------------|-----------------------------------|
--4--4-----7--6-4------------------|--4--4-----7--6-4------------------|
-------------------7-7--L---4-5--5-|-------------------7-7--L---4-5--5-|


           |-3| |-3| 3      |3|  3             |-3|              
  E  E  E  E  S E  S E  S S S E  S    E  E  E  E  S E  E  E  E   
-----------------------------------|----------------------------|
-----------------------------------|----------------------------|
--4--4-----7--6-4------------------|--2--2--------2-2--------2--|
-------------------7-7--L---4-5--5-|-----------4----------4-----|


           |-3| |-3| 3      |3|  3             |-3| |-3| 3      |3|  3  
  E  E  E  E  S E  S E  S S S E  S    E  E  E  E  S E  S E  S S S E  S  
-----------------------------------|-----------------------------------|
-----------------------------------|-----------------------------------|
--4--4-----7--6-4------------------|--4--4-----7--6-4------------------|
-------------------7-7--L---4-5--5-|-------------------7-7--L---4-5--5-|


           |-3| |-3| 3      |3|  3             |-3|              
  E  E  E  E  S E  S E  S S S E  S    E  E  E  E  S E  E  E  E   
-----------------------------------|----------------------------|
-----------------------------------|----------------------------|
--4--4-----7--6-4------------------|--2--2--------2-2--------2--|
-------------------7-7--L---4-5--5-|-----------4----------4-----|


  E  E  E  E  E  E  E  E     E  E  E  E  E  E  E  E   
--------------------------|--------------------------|
--------------------------|--------------------------|
--------------------------|--------------------------|
--5--5--5--5--5--5--5--5--|--7--7--7--7--7--7--7--7--|


  E  E  E  E    E  E  E  E     E  E  E  E    E  E  E  E   
----------------------------|----------------------------|
----------------------------|----------------------------|
----------------------------|----------------------------|
--2--2--2--2--2g4--4--4--4--|--2--2--2--2--2g7--7--7--7--|


  E  E  E  E  E  E  E  E     E  E  E  E  E  E   E   E   
--------------------------|----------------------------|
--------------------------|----------------------------|
--------------------------|----------------------------|
--5--5--5--5--5--5--5--5--|--7--7--7--7--7--7--14--11--|


   E   E   E   E   E   E   E   E     E  E  E  E  E  E  E  E   
----------------------------------|--------------------------|
----------------------------------|--------------------------|
----------------------------------|--------------------------|
--10--10--10--10--10--10--10--10--|--4--4--4--4--4--4--4--4--|


           |-3| |-3| 3      |3|  3             |-3| |-3| 3      |3|  3  
  E  E  E  E  S E  S E  S S S E  S    E  E  E  E  S E  S E  S S S E  S  
-----------------------------------|-----------------------------------|
-----------------------------------|-----------------------------------|
--4--4-----7--6-4------------------|--4--4-----7--6-4------------------|
-------------------7-7--L---4-5--5-|-------------------7-7--L---4-5--5-|


           |-3| |-3| 3      |3|  3             |-3|              
  E  E  E  E  S E  S E  S S S E  S    E  E  E  E  S E  E  E  E   
-----------------------------------|----------------------------|
-----------------------------------|----------------------------|
--4--4-----7--6-4------------------|--2--2--------2-2--------2--|
-------------------7-7--L---4-5--5-|-----------4----------4-----|


           |-3| |-3| 3      |3|  3             |-3| |-3| 3      |3|  3  
  E  E  E  E  S E  S E  S S S E  S    E  E  E  E  S E  S E  S S S E  S  
-----------------------------------|-----------------------------------|
-----------------------------------|-----------------------------------|
--4--4-----7--6-4------------------|--4--4-----7--6-4------------------|
-------------------7-7--L---4-5--5-|-------------------7-7--L---4-5--5-|


           |-3| |-3| 3      |3|  3             |-3|              
  E  E  E  E  S E  S E  S S S E  S    E  E  E  E  S E  E  E  E   
-----------------------------------|----------------------------|
-----------------------------------|----------------------------|
--4--4-----7--6-4------------------|--2--2--------2-2--------2--|
-------------------7-7--L---4-5--5-|-----------4----------4-----|


  W                                                                         
-------------------|-------|-------|-------|-------|-------|-------|-------|
-------------------|-------|-------|-------|-------|-------|-------|-------|
-------------------|-------|-------|-------|-------|-------|-------|-------|
--5----------------|-------|-------|-------|-------|-------|-------|-------|


-------|-------|-------|-------|-------|-------|-------|-------|-------|
-------|-------|-------|-------|-------|-------|-------|-------|-------|
-------|-------|-------|-------|-------|-------|-------|-------|-------|
-------|-------|-------|-------|-------|-------|-------|-------|-------|


-------||
-------||
-------||
-------||




Duration Legend
---------------
W - whole
H - half
Q - quarter
E - 8th
S - 16th
T - 32nd
X - 64th
. - note dotted
|-n-|  - n-tuplets
Suggest correction
Give kudos to tab author, rate the tab!
1 2 3 4 5
comments
print report bad tab
guest
You may want to rate the tab now too:
select rating
Wanna post a correction for this tab? Suggest correction