Oops, an error
Loading. Please wait.

Spies Bass Tab

version 2
version 2

Whole song

Interactive

1,693 views 1 this week
no commentswrite comment
1 2 3 4 5
please rate
add to favorites
launch autoscroll
font size
0
reset
guitar tuner
Autoscroll
slow
fast
+/-
esc
set tempo
stop
Help us to improve Ultimate-Guitar.com Take our survey!
×
Author
Difficulty
intermediate
Spies

Intro (tacet)

G |----------------|----------------|----------------|----------------|
D |----------------|----------------|----------------|----------------|
A |----------------|----------------|----------------|----------------|
E |----------------|----------------|----------------|----------------|

G |----------------|----------------||
D |----------------|----------------||
A |----------------|----------------||
E |----------------|----------------||


Verse 1 (tacet) 

G |----------------|----------------|----------------|----------------|
D |----------------|----------------|----------------|----------------|
A |----------------|----------------|----------------|----------------|
E |----------------|----------------|----------------|----------------|

G |----------------|----------------|----------------|----------------||
D |----------------|----------------|----------------|----------------||
A |----------------|----------------|----------------|----------------||
E |----------------|----------------|----------------|----------------||


Pre-Chorus (tacet)

G |----------------|----------------|----------------|----------------|
D |----------------|----------------|----------------|----------------|
A |----------------|----------------|----------------|----------------|
E |----------------|----------------|----------------|----------------|

G |----------------|----------------|----------------|----------------||
D |----------------|----------------|----------------|----------------||
A |----------------|----------------|----------------|----------------||
E |----------------|----------------|----------------|----------------||


Chorus

G |----------------|----------------|----------------|----------------|
D |----------------|----------------|----------------|----------------|
A |4----76---------|4----76---------|4----76---------|4---------------|
E |--------7---4---|--------7---4---|--------7---4---|------7-----4---|

G |----------------|----------------|----------------|----------------||
D |----------------|----------------|----------------|----------------||
A |4----76---------|4----76---------|4----76---------|4---------------||
E |--------7---4---|--------7---4---|--------7---4---|------7-----4---||


Verse 2

G |----------------|----------------|----------------|----------------|
D |----------------|----------------|----------------|----------------|
A |----------------|----------------|----------------|----------------|
E |2-----2-----2---|0-----0-----0---|5-----5-----5---|4-----4-----4---|




G |----------------|----------------|----------------|----------------||
D |----------------|----------------|----------------|----------------||
A |----------------|----------------|----------------|----------------||
E |2-----2-----2---|0-----0-----0---|5-----5-----5---|4-----4-----4---||


Pre-Chorus 

G |----------------|----------------|----------------|----------------|
D |----------------|----------------|----------------|----------------|
A |----------------|----------------|----------------|----------------|
E |2---------------|4---------------|5---------------|4---------------|

G |----------------|----------------|----------------|----------------||
D |----------------|----------------|----------------|----------------||
A |----------------|----------------|----------------|----------------||
E |2---------------|0---------------|5---------------|7---------------||


Chorus

G |----------------|----------------|----------------|----------------|
D |----------------|----------------|----------------|----------------|
A |4----76---------|4----76---------|4----76---------|4---------------|
E |--------7---4---|--------7---4---|--------7---4---|------7-----4---|

G |----------------|----------------|----------------|----------------||
D |----------------|----------------|----------------|----------------||
A |4----76---------|4----76---------|4----76---------|4---------------||
E |--------7---4---|--------7---4---|--------7---4---|------7-----4---||


Bridge 

G |----------------|----------------|----------------|----------------|
D |----------------|----------------|----------------|----------------|
A |----------------|----------------|----------------|----------------|
E |5-5-5-5-5-5-5-5-|7-7-7-7-7-7-7-7-|2-2-2-2-2-4-4-4-|2-2-2-2-7-7-7-7-|

G |----------------|----------------|----------------|----------------|
D |----------------|----------------|----------------|----------------|
A |----------------|------------9-7-|6-6-6-6-6-6-6-6-|----------------|
E |5-5-5-5-5-5-5-5-|7-7-7-7-7-7-----|----------------|4-4-4-4-4-4-4-4-|

G |----------------|----------------|----------------|----------------|
D |----------------|----------------|----------------|----------------|
A |44---76---------|44---76---------|44---76---------|44--------------|
E |--------7---4---|--------7---4---|--------7---4---|-----47--74-44--|

G |----------------|----------------|----------------|----------------||
D |----------------|----------------|----------------|----------------||
A |44---76---------|44---76---------|44---76---------|44--------------||
E |--------7---4---|--------7---4---|--------7---4---|-----47--74-44--||



Outro

G |----------------|----------------|----------------|----------------|
D |----------------|----------------|----------------|----------------|
A |----------------|----------------|----------------|----------------|
E |5---------------|4---------------|5---------------|2---------------|

G |----------------|----------------|----------------|----------------|
D |----------------|----------------|----------------|----------------|
A |----------------|----------------|----------------|----------------|
E |2---------------|0---------------|5---------------|7---------------|

G |----------------|----------------|----------------|----------------|
D |----------------|----------------|----------------|----------------|
A |4~--------------|----------------|----------------|----------------|
E |----------------|----------------|----------------|----------------|

G |----------------|----------------|----------------|----------------|
D |----------------|----------------|----------------|----------------|
A |4~--------------|----------------|----------------|----------------|
E |----------------|----------------|----------------|----------------|

G |----------------|----------------|----------------|----------------|
D |----------------|----------------|----------------|----------------|
A |4~--------------|----------------|----------------|----------------|
E |----------------|----------------|----------------|----------------|

G |----------------|----------------|----------------|----------------|
D |----------------|----------------|----------------|----------------|
A |4~--------------|----------------|----------------|----------------|
E |----------------|----------------|----------------|----------------|

G |----------------||
D |----------------||
A |4---------------||
E |----------------||
Suggest correction
Give kudos to tab author, rate the tab!
1 2 3 4 5
comments
print report bad tab
guest
You may want to rate the tab now too:
select rating
Wanna post a correction for this tab? Suggest correction