Oops, an error
Loading. Please wait.

Square One Tab

version 2
version 2

Whole song

Interactive

10,251 views 9 this week
1 commentread comment
1 2 3 4 5
excellent!
x 8
add to favorites
launch autoscroll
font size
0
reset
how to read this tab
guitar tuner
Autoscroll
slow
fast
+/-
esc
set tempo
stop
Help us to improve Ultimate-Guitar.com Take our survey!
×
Author
Coldplay - Square One
mossfryer@gmail.com

100% from the tab book
Sounds great 1 gtr + FX

E A D G C D#

Intro

d|----------------| x2 w/delay + rvb
C|-------------12-|
G|-------12-------|
D|-10-------------|
A|----------------|
E|----------------|


Verse

d|---------- x3  d|-----------| x1
C|----------     C|-----------|
G|-8-----10-     G|-8-----2---|
D|-10----8--     D|-10----3---|
A|-10----10-     A|-10----3---|
E|-8-----8--     E|-8-----1---|


Interlude

d|----------------| x2
C|-------------12-|
G|-------12-------|
D|-10-------------|
A|----------------|
E|----------------|


Chorus
               h
d|-4----4-----4-5--| faintly repeated lead
C|---3-----3-------|
G|-----------------|
D|-----------------|
A|-----------------|
E|-----------------|

d|----------------------------------------| x3
C|-------------------x3-------------------|x1
G|----------------------------------------|
D|--------------------------8-8-8-10-10---|
A|-------8-8-8-10-10----------------------|
E|-8-8-8--------------8-8-8---------------|

    h       h
d|-5-4-----5-4-----| x4
C|-----5-3-----5-3-|
G|-----------------|
D|-----------------|
A|-----------------|
E|-----------------|

    h       h
d|-6-4-----6-4-----| x4
C|-----5-3-----5-3-|
G|-----------------|
D|-----------------|
A|-----------------|
E|-----------------|


Pre - Verse
                (Bass) arr. for Guitar - once in song
d|-------------------------------------------------------------|
C|-------------------------------------------------------------|
G|-------------------------------------------------------------|
D|-8-8-------------------------------8-8-----------------------|
A|-----6--------6--------6-------6-------6-------6----6------6-|
E|-------8----8-------8----8---8-----------8---8---8----8--8---|


Verse
       w/echo                                        b
d|-7------------------------------------------7-----^^-^---------|
C|------2----------I don't mute E personally-------2--3-2--------|
G|---------------------------------------------------------------|
D|---------------------------------------------------------------|
A|-----------------6--6-6-6---------6--6-6-6---------------------|
E|-----------8-8-8-x--x-x-x---8-8-8-x--x-x-x-------------8-8-----|etc

d|-----------------------------------------------------------|
C|-----------------------------------------------------------|
G|-----------------------------------------------------------|
D|-------5-5-5-----------------------------------------------|
A|-6-6-6-------6-6---------1-1-1------------6--6-6-6-------6-|
E|-------------------3-3-3-------3-3--8-8-8----------8-8-8---|

d|-19-19---------------------------x2----------------------------|
C|-------15-15--15-----------------------repeat-------add-occas.-|
G|-----------------15--14-15-17--------8--8-------------10-------|
D|------------------------------12-----10-10------------10-------|
A|-------------------------------------10-10------------8--------|
E|-------------------------------------8--8-------------8--------|


Outro

Lead

d|-12-------------------12-----------------------------|
C|------10---9-10-12---------10---9-10-12----9-10-12---|
G|-------------------7--------------------7----------7-|
D|-----------------------------------------------------|
A|-----------------------------------------------------|
E|-----------------------------------------------------|

Is there anybody....

d|---0---0---0--0---0--0----0--0---0----0-|
C|---0---0---0--0---0--0----0--0---0----0-|
G|-1---5---1----8---7--5--1----8---7----5-|
D|-3---6---3----10--0--6--3----10--0----6-|
A|-3---6---3----10--8--6--3----10--8----6-|
E|-1---4---1----8---6--4--1----8---6----4-|
Suggest correction
comments
print report bad tab
1 comment total.
0 reply
itsgoodtobefree 124 wrote on June 29 2013, 06:53 pm

Tab is good, but the tuning seems unnecessary.

guest
You may want to rate the tab now too:
select rating
Please do not post tabs as comments. Select "correction" instead!