Oops, an error
Loading. Please wait.

Strawberry Swing Bass Tab

version 2
version 2

Whole song

Interactive

5,165 views 6 this week
no commentswrite comment
1 2 3 4 5
excellent!
x 5
add to favorites
launch autoscroll
font size
0
reset
guitar tuner
Autoscroll
slow
fast
+/-
esc
set tempo
stop
Help us to improve Ultimate-Guitar.com Take our survey!
×
Hello, this is my first tab. This is a pretty acurate tab, i think.....


Song: Strawberry Swing

Artist: Coldplay

Album: Viva La Vida (or Death And All His Friends)

Guitar starts - Bass starts when singing starts, about 28 seconds..

listen to the song for timing

Verse:
they were sitting, they were sitting, on the strawberry
G|----------------------------------------------------|
D|----------------------------------------------------|
A|-----------4-4-4-4-4-4-4-4--------------------------|
E|---------------------------------4-4-4-4-4-4-4-4----|

swing.....
G|---------------------------------|
D|---------------------------------| 4x
A|-6-6-6-6-6-6-6-6-6-6-6-6-6-6-6-6-|
E|---------------------------------|

Chorus:
Cold, cold water..........
G|------------------------------------------------------------------------|
D|------------------------------------------------------------------------|
A|---------4-4-4-4-4-4-4-4----------------------6(x16)--------------------|
E|----------------------------4-4-4-4-4-4-4-4-----------------------------|


G|------------------------------------------------------------------------|
D|------------------------------------------------------------------------|
A|-4-4-4-4-4-4-4-4---------------------3-3-3-3-3-3-3-3-3-3-3-3-3-3-3-3----|
E|--------------------4-4-4-4-4-4-4-4-------------------------------------|

Guitar solo, then....

G|----------------------------------|
D|----------------------------------|
A|----------------------------------|
E|-4-4-4-4-4-4-4-4-4-4-4-4-4-4-4-4--|

verse(2x)

Chorus:
 People moving all the time.......
G|-------------------------------------------------------------------------|
D|-------------------------------------------------------------------------|
A|----4-4-4-4-4-4-4-4---------------------6-6-6-6-6-6-6-6-6-6-6-6-6-6-6-6--|
E|---------------------4-4-4-4-4-4-4-4-4-----------------------------------|

E|-------------------------------------------------------------------------|
B|-------------------------------------------------------------------------|
G|-------------------------------------------------------------------------|
D|-------------------------------------------------------------------------|
A|---4-4-4-4-4-4-4-4-------------------3-3-3-3-3-3-3-3-3-3-3-3-3-3-3-3-----|
E|--------------------4-4-4-4-4-4-4-4--------------------------------------|

G|----------------------------------|
D|----------------------------------|
A|4-4-4-4-4-4-4-4-4-4-4-4-4-4-4-4---|
E|----------------------------------|
Bridge:

G|-------------------------------------------------------------------------|
D|-------------------------------------------------------------------------|
A|-1-1-1-1-1-1-1-1-1-1-1-1-1-1-1-1-----------------------------------------|
E|---------------------------------(1)-1-1-1-1-1-1-1-1-1-1-1-1-1-1-1-------|

                                    nooooooow................ the sky could
G|--------------------------------------------------------------------------|
D|------------------------------------------------------------------6-6-6-6-|
A|-1-1-1-1-1-1-1-1-1-1-1-1-1-1-1-1--4-4-4-4-4-4-4-4-4-4-4-4-4-4-4-4---------|
E|--------------------------------------------------------------------------|
   be blue....
G|---------------------------------------------------------------------------|
D|-6-6-6-6-6-6-(5h6)-6-(5h6)-6-(5h6)-6-------------------------------6-6-6-6-|
A|------------------------------------4-4-4-4-4-4-4-4-4-4-4-4-4-4-4-4--------|
E|---------------------------------------------------------------------------|

G|---------------------------------------------------------------------------|
D|-6-6-6-6-6-6-(5h6)-6-(5h6)-6-(5h6)-6---------------------------------------|
A|------------------------------------4-4-4-4-4-4-4-4-4-4-4-4-4-4-4-4--------|
E|-------------------------------------------------------------------4-4-4-4-|

G|---------------------------------------------------------------------------|
D|-------------------------------------------------------6-6-6-6-6-6-6-6-6-6-|
A|----------------------------------------4-4-4-4-4-4-4-4--------------------|
E|-4-4-4-4-4-4-4-4-4-4-4-4-2-2-2-2-2-2-2-2-----------------------------------|
                                               last note
G|--------------------------------------------|-----|
D|-6-6-6-6-6-6--------------------------------|-\6--|
A|----------------------------4-4-4-4-4-4-4-4-|-----|
E|-------------2-2-2-2-2-2-2-2----------------|-----|


intro
verse(4x)
chorus
verse(4x)
chorus
bridge


very easy song to play.........
Suggest correction
comments
print report bad tab
guest
You may want to rate the tab now too:
select rating
Please do not post tabs as comments. Select "correction" instead!