Oops, an error
Loading. Please wait.

Talk Tab

version 1
version 1

Intro

Whole song

Interactive

17,598 views 9 this week
9 commentsread comments
1 2 3 4 5
x 11
add to favorites
launch autoscroll
font size
0
reset
how to read this tab
guitar tuner
backing track
0:00
0:00
×
Best way to learn
"Talk"
Autoscroll
slow
fast
+/-
esc
set tempo
stop
Author
From Coldplay's third album X&Y

e----15-13---------------10--------]   3x
B----------15-13--11h13------------]
G-12-------------------------12----]
D----------------------------------]
A----------------------------------]
E----------------------------------]

e----15-13---------------10------10-----------------------]   
B----------15-13--11h13-------------------15-15-15-15s13--]
G-12-------------------------12------12-------------------]
D---------------------------------------------------------]
A---------------------------------------------------------]
E---------------------------------------------------------]

That's it E-mail me if you have any comments or suggestions.
Coldplay25801@yahoo.com
Suggest correction
comments
print report bad tab
9 comments total. Showing first comments.
0 reply
Jerebear 15 Apr 21, 2005 08:00 PM

A little error has been pointed out to me by somebody. After the 15s13.

Do this

e------------------]
B-10---------------]
G---10-------------]
D------------------]
A------------------]
E------------------]

0 reply
Jerebear 15 Jun 30, 2005 08:00 PM

Nobodys voted? hmmmm my tab must really suck

0 reply
Jerebear 15 Jun 30, 2005 08:00 PM

Nobodys voted? hmmmm my tab must really suck

guest
You may want to rate the tab now too:
select rating
Wanna post a correction for this tab? Suggest correction