Oops, an error
Loading. Please wait.
We have Chord Pro version of Talk.
It's the closest thing you can get to the original song and it has interactive parts. Check out the tab »
×
1,225 views 1 this week
2 commentsread comments
1 2 3 4 5
1 last vote to show rating
add to favorites
×
Save as Personal and add changes to this tab that will be seen only by you. Learn more ›
×
You can save this tab as Personal to edit and correct it or add notes. All changes will be seen only by you. Learn more »
launch autoscroll
font size
0
reset
guitar tuner
backing track
0:00
0:00
edit
Autoscroll
slow
fast
+/-
esc
set tempo
stop
Difficulty
Talk (Bass) – Coldplay

Tabbed by Darth Lakey

Intro - Pause 10 Bars, then…

G|----------------|-0-0-0-3-3-3-3-3|----------------|-0-0-0-3-3-3-3-3|
D|-1-1-1-1-1-1-1-1|----------------|-1-1-1-1-1-1-1-1|----------------|
A|----------------|----------------|----------------|----------------|
E|----------------|----------------|----------------|----------------|

G|----------------|-0-0-0-3-3-3-3-3|----------------|----------------|
D|-1-1-1-1-1-1-1-1|----------------|-1-1-1-1-1-1-1-1|-3-3-3-3-3-3-3-3|
A|----------------|----------------|----------------|----------------|
E|----------------|----------------|----------------|----------------|

Verse 1 

       Oh brother…
G|----------------|----------------|----------------|----------------|
D|-1--------------|----------------|----------------|----------------|
A|----------------|----------------|----------------|----------------|
E|----------------|----------------|----------------|----------------|

Chorus 1

…take a picture…   
G|----------------|----------------|----------------|----------------|
D|-1-1-1-1-1-1-1-1|----------------|-1-1-1-1-1-1-1-1|----------------|
A|----------------|-------1---1-1--|----------------|-------1---1-1--|
E|----------------|-3-3-3----------|----------------|-3-3-3----------|

G|----------------|----------------|----------------|----------------|
D|-1-1-1-1-1-1-1-1|----------------|-1-1-1-1-1-1-1-1|----------------|
A|----------------|-------1---1-1--|----------------|-------1---1-1--|
E|----------------|-3-3-3----------|----------------|-3-3-3----------|

G|----------------|----------------|----------------|----------------|
D|-1-1-1-1-1-1-1-1|----------------|-1-1-1-1-1-1-1-1|----------------|
A|----------------|-------1---1-1--|----------------|-------1---1-1--|
E|----------------|-3-3-3----------|----------------|-3-3-3----------|

G|----------------|----------------|----------------|----------------|
D|-1-1-1-1-1-1-1-1|----------------|-1-1-1-1-1-1-1-1|-3-3-3-3---3-3--|
A|----------------|-------1---1-1--|----------------|----------------|
E|----------------|-3-3-3----------|----------------|----------------|

Break

G|----------------|----------------|----------------|----------------|
D|----------------|----------------|----------------|----------------|
A|----------------|----------------|----------------|----------------|
E|-3--------------|-3--------------|----------------|----------------|

Verse 2 

…how you feel…
G|----------------|-0-0-0-3-3-3-3-3|----------------|-0-0-0-3-3-3-3-3|
D|-1-1-1-1-1-1-1-1|----------------|-1-1-1-1-1-1-1-1|----------------|
A|----------------|----------------|----------------|----------------|
E|----------------|----------------|----------------|----------------|

G|----------------|-0-0-0-3-3-3-3-3|----------------|-0-0-0-3-3-3-3-3|
D|-1-1-1-1-1-1-1-1|----------------|-1-1-1-1-1-1-1-1|----------------|
A|----------------|----------------|----------------|----------------|
E|----------------|----------------|----------------|----------------|

G|----------------|-0-0-0-3-3-3-3-3|----------------|----------------|
D|-1-1-1-1-1-1-1-1|----------------|----------------|----------------|
A|----------------|----------------|----------------|----------------|
E|----------------|----------------|-3--------------|-3--------------|
Chorus 2

…take a picture…   
G|----------------|----------------|----------------|----------------|
D|-1-1-1-1-1-1-1-1|----------------|-1-1-1-1-1-1-1-1|----------------|
A|----------------|-------1---1-1--|----------------|-------1---1-1--|
E|----------------|-3-3-3----------|----------------|-3-3-3----------|

G|----------------|----------------|----------------|----------------|
D|-1-1-1-1-1-1-1-1|----------------|-1-1-1-1-1-1-1-1|----------------|
A|----------------|-------1---1-1--|----------------|-------1---1-1--|
E|----------------|-3-3-3----------|----------------|-3-3-3----------|

G|----------------|----------------|----------------|----------------|
D|-1-1-1-1-1-1-1-1|----------------|-1-1-1-1-1-1-1-1|----------------|
A|----------------|-------1---1-1--|----------------|-------1---1-1--|
E|----------------|-3-3-3----------|----------------|-3-3-3----------|

G|----------------|----------------|----------------|----------------|
D|-1-1-1-1-1-1-1-1|----------------|-1-1-1-1-1-1-1-1|-3-3-3-3---3-3--|
A|----------------|-------1---1-1--|----------------|----------------|
E|----------------|-3-3-3----------|----------------|----------------|

G|----------------|----------------|----------------|----------------|
D|-1-1-1-1-1-1-1-1|-3-3-3-3---3-3--|----------------|----------------|
A|----------------|----------------|----------------|----------------|
E|----------------|----------------|-3--------------|-3--------------|

Interlude

G|----------------|----------------|----------------|----------------|
D|----------------|-1--------------|----------------|----------------|
A|-3--------------|----------------|----------------|----------------|
E|----------------|----------------|-3--------------|-1--------------| 

G|----------------|----------------|----------------|----------------|
D|----------------|-1--------------|----------------|----------------|
A|-3--------------|----------------|----------------|----------------|
E|----------------|----------------|-3--------------|-1--------------| 

G|----------------|----------------|----------------|----------------|
D|----------------|-1--------------|----------------|----------------|
A|-3--------------|----------------|----------------|----------------|
E|----------------|----------------|-3--------------|-1--------------| 

G|----------------|----------------|----------------|----------------|
D|----------------|-1--------------|----------------|----------------|
A|-3--------------|----------------|----------------|----------------|
E|----------------|----------------|-3--------------|-1--------------| 

Interlude 2

G|----------------|-0-0-0-3-3-3-3-3|----------------|-0-0-0-3-3-3-3-3|
D|-1-1-1-1-1-1-1-1|----------------|-1-1-1-1-1-1-1-1|----------------|
A|----------------|----------------|----------------|----------------|
E|----------------|----------------|----------------|----------------|

G|----------------|-0-0-0-3-3-3-3-3|----------------|----------------|
D|-1-1-1-1-1-1-1-1|----------------|-1-1-1-1-1-1-1-1|-3-3-3-3-3-3-3-3|
A|----------------|----------------|----------------|----------------|
E|----------------|----------------|----------------|----------------|

Repeat Chorus 2 (except last bar)

End

            
            
Suggest correction
Creating personal tab
Creating personal tab
You can edit any tab online and save it as your Personal.

You can edit, replace or remove any tab part or add personal notes – all changes will be seen only by you.

Personal tabs can be accessed anytime from any device, even offline.
Learn more »
Give kudos to tab author, rate the tab!
1 2 3 4 5
comments
print report bad tab
2 comments total.
0 reply
juako.071 55 Aug 07, 2012 05:12 PM

it's right, but it should be like this:

G|----------------|----------------|----------------|----------------|
D|-1-1-1-1-1-1-1-1|----------------|-1-1-1-1-1-1-1-1|----------------|
A|----------------|----------------|----------------|----------------|
E|----------------|-3-3-3-5---5-5-5|----------------|-3-3-3-5---5-5-5|

and this repeats in intro, verse 2 and interlude 2. still making tab's! :D

0 reply
juako.071 55 Aug 07, 2012 05:14 PM

oops, the 2cond meassure is these

|----------------|
|----------------|
|----------------|
|-3-3-3-6---6-6-6|

guest
Wanna post a correction for this tab? Suggest correction