Oops, an error
Loading. Please wait.
We have an official Talk tab made by UG professional guitarists. Check out the tab »
×
5,797 views 12 this week
1 commentread comment
1 2 3 4 5
x 13
add to favorites
×
Save as Personal and add changes to this tab that will be seen only by you. Learn more ›
×
You can save this tab as Personal to edit and correct it or add notes. All changes will be seen only by you. Learn more »
launch autoscroll
font size
0
reset
guitar tuner
backing track
0:00
0:00
edit
Autoscroll
slow
fast
+/-
esc
set tempo
stop
Author
Difficulty
Talk (Bass) – Coldplay

Tabbed by Darth Lakey

This is actually a slight amendment to my previous submission (Ver 2), which I 
cannot edit as it doesn't seem to be attributed to me in UG...

Intro: Pause 10 Bars, then…

G|----------------|-0-0-0-3-3-3-3-3|----------------|-0-0-0-3-3-3-3-3|
D|-1-1-1-1-1-1-1-1|----------------|-1-1-1-1-1-1-1-1|----------------|
A|----------------|----------------|----------------|----------------|
E|----------------|----------------|----------------|----------------|

G|----------------|-0-0-0-3-3-3-3-3|----------------|----------------|
D|-1-1-1-1-1-1-1-1|----------------|-1-1-1-1-1-1-1-1|-3-3-3-3-3-3-3-3|
A|----------------|----------------|----------------|----------------|
E|----------------|----------------|----------------|----------------|

Verse 1 

       Oh brother…              …wanna talk to you…
G|----------------|----------------|----------------|-0--------------|
D|-1--------------|----------------|----------------|----------------|
A|----------------|----------------|----------------|----------------|
E|----------------|----------------|----------------|----------------|

Chorus 1

…take a picture…   
G|----------------|----------------|----------------|----------------|
D|-1-1-1-1-1-1-1-1|----------------|-1-1-1-1-1-1-1-1|----------------|
A|----------------|-------1-1-1-1--|----------------|-------1-1-1-1--|
E|----------------|-3-3-3----------|----------------|-3-3-3----------|

G|----------------|----------------|----------------|----------------|
D|-1-1-1-1-1-1-1-1|----------------|-1-1-1-1-1-1-1-1|----------------|
A|----------------|-------1-1-1-1--|----------------|-------1-1-1-1--|
E|----------------|-3-3-3----------|----------------|-3-3-3----------|

G|----------------|----------------|----------------|----------------|
D|-1-1-1-1-1-1-1-1|----------------|-1-1-1-1-1-1-1-1|----------------|
A|----------------|-------1-1-1-1--|----------------|-------1-1-1-1--|
E|----------------|-3-3-3----------|----------------|-3-3-3----------|

G|----------------|----------------|----------------|----------------|
D|-1-1-1-1-1-1-1-1|----------------|-1-1-1-1-1-1-1-1|-3-3-3-3-3-3-3--|
A|----------------|-------1-1-1-1--|----------------|----------------|
E|----------------|-3-3-3----------|----------------|----------------|

Break

G|----------------|----------------|----------------|----------------|
D|----------------|----------------|----------------|----------------|
A|----------------|----------------|----------------|----------------|
E|-3--------------|-3--------------|----------------|----------------|

Verse 2 

…how you feel…
G|----------------|-0-0-0-3-3-3-3-3|----------------|-0-0-0-3-3-3-3-3|
D|-1-1-1-1-1-1-1-1|----------------|-1-1-1-1-1-1-1-1|----------------|
A|----------------|----------------|----------------|----------------|
E|----------------|----------------|----------------|----------------|

G|----------------|-0-0-0-3-3-3-3-3|----------------|-0-0-0-3-3-3-3-3|
D|-1-1-1-1-1-1-1-1|----------------|-1-1-1-1-1-1-1-1|----------------|
A|----------------|----------------|----------------|----------------|
E|----------------|----------------|----------------|----------------|

G|----------------|----------------|----------------|----------------|
D|-1-1-1-1-1-1-1-1|-3-3-3-3-3-3-3-3|----------------|----------------|
A|----------------|----------------|----------------|----------------|
E|----------------|----------------|-3--------------|-3--------------|
Chorus 2

…take a picture…   
G|----------------|----------------|----------------|----------------|
D|-1-1-1-1-1-1-1-1|----------------|-1-1-1-1-1-1-1-1|----------------|
A|----------------|-------1-1-1-1--|----------------|-------1-1-1-1--|
E|----------------|-3-3-3----------|----------------|-3-3-3----------|

G|----------------|----------------|----------------|----------------|
D|-1-1-1-1-1-1-1-1|----------------|-1-1-1-1-1-1-1-1|----------------|
A|----------------|-------1-1-1-1--|----------------|-------1-1-1-1--|
E|----------------|-3-3-3----------|----------------|-3-3-3----------|

G|----------------|----------------|----------------|----------------|
D|-1-1-1-1-1-1-1-1|----------------|-1-1-1-1-1-1-1-1|----------------|
A|----------------|-------1-1-1-1--|----------------|-------1-1-1-1--|
E|----------------|-3-3-3----------|----------------|-3-3-3----------|

G|----------------|----------------|----------------|----------------|
D|-1-1-1-1-1-1-1-1|----------------|-1-1-1-1-1-1-1-1|-3-3-3-3-3-3-3--|
A|----------------|-------1-1-1-1--|----------------|----------------|
E|----------------|-3-3-3----------|----------------|----------------|

G|----------------|----------------|----------------|----------------|
D|-1-1-1-1-1-1-1-1|-3-3-3-3-3-3-3--|----------------|----------------|
A|----------------|----------------|----------------|----------------|
E|----------------|----------------|-3--------------|-3--------------|

Interlude

G|----------------|----------------|----------------|----------------|
D|----------------|-1--------------|----------------|----------------|
A|-3--------------|----------------|----------------|----------------|
E|----------------|----------------|-3--------------|-1--------------| 

G|----------------|----------------|----------------|----------------|
D|----------------|-1--------------|----------------|----------------|
A|-3--------------|----------------|----------------|----------------|
E|----------------|----------------|-3--------------|-1--------------| 

G|----------------|----------------|----------------|----------------|
D|----------------|-1--------------|----------------|----------------|
A|-3--------------|----------------|----------------|----------------|
E|----------------|----------------|-3--------------|-1--------------| 

G|----------------|----------------|----------------|----------------|
D|----------------|-1--------------|----------------|----------------|
A|-3--------------|----------------|----------------|----------------|
E|----------------|----------------|-3--------------|-1--------------| 

Interlude 2

G|----------------|-0-0-0-3-3-3-3-3|----------------|-0-0-0-3-3-3-3-3|
D|-1-1-1-1-1-1-1-1|----------------|-1-1-1-1-1-1-1-1|----------------|
A|----------------|----------------|----------------|----------------|
E|----------------|----------------|----------------|----------------|

G|----------------|-0-0-0-3-3-3-3-3|----------------|----------------|
D|-1-1-1-1-1-1-1-1|----------------|-1-1-1-1-1-1-1-1|-3-3-3-3-3-3-3-3|
A|----------------|----------------|----------------|----------------|
E|----------------|----------------|----------------|----------------|

Repeat Chorus 2 (except last bar)

End

            
            
Suggest correction
Creating personal tab
Creating personal tab
You can edit any tab online and save it as your Personal.

You can edit, replace or remove any tab part or add personal notes – all changes will be seen only by you.

Personal tabs can be accessed anytime from any device, even offline.
Learn more »
comments
print report bad tab
1 comment total.
0 reply
Artolan 273 May 17, 2017 04:47 PM

Why nobody hear the octaves in verses?

guest
You may want to rate the tab now too:
select rating
Wanna post a correction for this tab? Suggest correction