Oops, an error
Loading. Please wait.
We have an official Trouble tab made by UG professional guitarists. Check out the tab »
×

Trouble Acoustic tab

version 7
version 7

Whole song

Video

20,994 views 6 this week
2 commentsread comments
1 2 3 4 5
x 5
add to favorites
×
Save as Personal and add changes to this tab that will be seen only by you. Learn more ›
×
You can save this tab as Personal to edit and correct it or add notes. All changes will be seen only by you. Learn more »
launch autoscroll
font size
0
reset
how to read this tab
guitar tuner
backing track
0:00
0:00
edit
Autoscroll
slow
fast
+/-
esc
set tempo
stop
 Note: This song sounds better with a capo on the 2nd fret.
             
          Featured Chords
            
         G          Em         Bm 
 |-------3--|-----------|-------2--|
 |----------|-----------|-------3--|
 |----------|-----------|-------4--|
 |----------|--------2--|-------4--|
 |-------2--|--------2--|-------2--|
 |-------3--|-----------|-------x--|

         F          Am         A
 |-------1---|-----------|----------|
 |-------1---|-------1---|-----2----|
 |-------2---|-------2---|-----2----|
 |-------3---|-------2---|-----2----|
 |-------3---|-----------|----------|
 |-------1---|-----------|----------|

     F#m
 |-----2-----|
 |-----2-----|
 |-----2-----|
 |-----4-----|
 |-----4-----|
 |-----2-----|


                         Intro/Chorus
             
               G                Em               Bm 
 |2--3--2------3--|--2--3--2--------|--2--3--2----2--|
 |--------3-------|----------3------|----------3--3--|
 |----------------|-----------------|-------------4--|
 |----------------|--------------2--|-------------4--|
 |-------------2--|--------------2--|-------------2--|
 |-------------3--|-----------------|-------------x--|

               G                Em               Bm 
 |5--3--2------3--|--2--3--2--------|--2--3--2----2--|
 |--------3-------|----------3------|----------3--3--|
 |----------------|-----------------|-------------4--|
 |----------------|--------------2--|-------------4--|
 |-------------2--|--------------2--|-------------2--|
 |-------------3--|-----------------|-------------x--|

               G                Em               Bm 
 |2--3--2------3--|--2--3--2--------|--2--3--2----2--|
 |--------3-------|----------3------|----------3--3--|
 |----------------|-----------------|-------------4--|
 |----------------|--------------2--|-------------4--|
 |-------------2--|--------------2--|-------------2--|
 |-------------3--|-----------------|-------------x--|

               G                Em               Bm 
 |5--3--2------3--|--2--3--2--------|--2--3--2----2--|
 |--------3-------|----------3------|----------3--3--|
 |----------------|-----------------|-------------4--|
 |----------------|--------------2--|-------------4--|
 |-------------2--|--------------2--|-------------2--|
 |-------------3--|-----------------|-------------x--|

  
Verse 1
G  Em   Bm
Oh no, I see, 

F               Am              G
A spider web is tangled up with me, 

G     Em      Bm

And I lost my head, 

F                      Am                G
And thought of all the stupid things I’d said, 

                      Chrous

               G                Em               Bm 
 |2--3--2------3--|--2--3--2--------|--2--3--2----2--|
 |--------3-------|----------3------|----------3--3--|
 |----------------|-----------------|-------------4--|
 |----------------|--------------2--|-------------4--|
 |-------------2--|--------------2--|-------------2--|
 |-------------3--|-----------------|-------------x--|


               G                Em               Bm 
 |5--3--2------3--|--2--3--2--------|--2--3--2----2--|
 |--------3-------|----------3------|----------3--3--|
 |----------------|-----------------|-------------4--|
 |----------------|--------------2--|-------------4--|
 |-------------2--|--------------2--|-------------2--|
 |-------------3--|-----------------|-------------x--|

Verse 2

G   Em        Bm
Oh no, What’s this,

F                    Am                   G
A spider web and i’m caught in the middle, 

G    Em        Bm
So I turned to run,  

F                  Am                G
And thought of all the stupid things I’d done, 


A                                 Em
And I never meant to cause you trouble, 

A                          Em
I never meant to do you wrong, 

A                            Em
Ah well if I ever caused you trouble, 

A                                  Em
Then oh no I never meant to do you harm. 
              
                          Chorus
               G                Em               Bm 
 |2--3--2------3--|--2--3--2--------|--2--3--2----2--|
 |--------3-------|----------3------|----------3--3--|
 |----------------|-----------------|-------------4--|
 |----------------|--------------2--|-------------4--|
 |-------------2--|--------------2--|-------------2--|
 |-------------3--|-----------------|-------------x--|

               G                Em               Bm 
 |5--3--2------3--|--2--3--2--------|--2--3--2----2--|
 |--------3-------|----------3------|----------3--3--|
 |----------------|-----------------|-------------4--|
 |----------------|--------------2--|-------------4--|
 |-------------2--|--------------2--|-------------2--|
 |-------------3--|-----------------|-------------x--|


Verse 3
G  Em   Bm    
Oh no i see, 

F                     Am               G
A spider web and it’s me in the middle, 

G    Em        Bm
So i twist and turn, 

F                Am               G
But here am I in my little bubble. 

A                                         Em
Singing out I never meant to cause you trouble, 

A                          Em                  
Ah I never meant to do you wrong, 

A                                Em
And ah well if I ever caused you trouble,

A                                  Em
Then oh no I never meant to do you harm. 


Em       F#m    G   F#m Em
They spun a web for me, 

Em   F#m    G   F#m Em
And they spun a web for me, 

Em       F#m    G   F#m Em
And they spun a web for me......


By Carlo Colucci


            
            
Suggest correction
Creating personal tab
Creating personal tab
You can edit any tab online and save it as your Personal.

You can edit, replace or remove any tab part or add personal notes – all changes will be seen only by you.

Personal tabs can be accessed anytime from any device, even offline.
Learn more »
comments
print report bad tab
2 comments total.
0 reply
culy 71 Jan 26, 2009 06:41 AM

Awesome! You did a great job!

0 reply
Meech74 10 Oct 25, 2009 08:42 AM

good tab just in verse substitute Fmaj7 and Amin7 for F and Am

guest
You may want to rate the tab now too:
select rating
Wanna post a correction for this tab? Suggest correction