Oops, an error
Loading. Please wait.

Twisted Logic tab

version 1
version 1

Whole song

Interactive

5,372 views 9 this week
1 commentread comment
1 2 3 4 5
x 4
add to favorites
×
Save as Personal and add changes to this tab that will be seen only by you. Learn more ›
×
You can save this tab as Personal to edit and correct it or add notes. All changes will be seen only by you. Learn more »
launch autoscroll
font size
0
reset
how to read this tab
guitar tuner
edit
Autoscroll
slow
fast
+/-
esc
set tempo
stop
Author
Coldplay – Twisted Logic
Tabbed by Gerry Strother

Tuning: Eb Ab Db Gb Bb Eb

     C   D9    E/G#   Am7
eb|--0---0------4------0----|
Bb|--1---3------5------1----|
Gb|--0---5------4------0----|
Db|--2---4------6------2----|
Ab|--3---5-------------0----|v
Eb|-------------------------|

Intro:
Sunlight opened up my eyes
To see for the first time
It opened them up
And tonight
Rivers will run dry
And not for the first time
Rivers will run

Interlude:

eb|—-------2-------------0-------------0-------------2------|
Bb|------1---1---------1---1---------1---1---------1---1----|
Gb|----2-------2-----0-------0-----0-------0-----2-------2--|
Db|--------------------------------------------0------------|
Ab|-----------------------------3---------------------------| x2
Eb|-2-------------3-----------------------------------------|


Verse:

Hundreds of years in the future
There could be computers
Looking for life on earth
So don't fight for the wrong side
Say what you feel like
Say how you feel

e-----------------------------|
B-----------------------------|
G-----------------------------|
D-----------------------------|
A---7-7-7-7-5-7---------------|
E-0---------------------------|

Pre-Chorus:

You'll go backwards
But then you'll go forwards again
You'll go backwards
But then you'll go

C, D9, E/G#, Am7
C, D9, E/G#, E/G#
C, D9, E/G#, Am7
C, D9

eb|-------------------------------|
Bb|-13\12--4/6--12--5--13\12--4/6-|
Gb|-------------------------------|
Db|-------------------------------|
Ab|-------------------------------|
Eb|-------------------------------|

Interlude:

eb|------12--------12--------12-------7--------5-------4-| X2
Bb|------------------------------------------------------|
Gb|-9/13----9-9/13----9-9/12-----12\9---9\7--7---7\4-4---|
Db|------------------------------------------------------|
Ab|------------------------------------------------------|
Eb|------------------------------------------------------|


Verse:

Created then drilled and invaded
If somebody made it
Someone will mess it up
And you are not wrong to
Ask who does this belong to
It belongs to all of us

Interlude:

Chorus:

You'll go backwards but then you'll go forwards again
You'll go backwards but then you'll go forwards
You'll go backwards but then you'll go forwards again
You'll go backwards but then you'll go forwards

eb|-------------------------------------| repeated
Bb|-12-------13------12------10-------9-|
Gb|-14B16---15B17--14B16--12B14---11B13-|
Db|-------------------------------------|
Ab|-------------------------------------|
Eb|-------------------------------------|
Suggest correction
Creating personal tab
Creating personal tab
You can edit any tab online and save it as your Personal.

You can edit, replace or remove any tab part or add personal notes – all changes will be seen only by you.

Personal tabs can be accessed anytime from any device, even offline.
Learn more »
comments
print report bad tab
1 comment total.
0 reply
arvinddbz 10 Mar 15, 2017 12:10 AM

nice, awesome tab! Love this song :)

guest
You may want to rate the tab now too:
select rating
Wanna post a correction for this tab? Suggest correction