Oops, an error
Loading. Please wait.

Up And Up solo tab

version 1
version 1

Solo

Whole song

Interactive

15,004 views 99 this week
2 commentsread comments
1 2 3 4 5
x 28
add to favorites
×
Save as Personal and add changes to this tab that will be seen only by you. Learn more ›
×
You can save this tab as Personal to edit and correct it or add notes. All changes will be seen only by you. Learn more »
launch autoscroll
font size
0
reset
how to read this tab
guitar tuner
edit
Autoscroll
slow
fast
+/-
esc
set tempo
stop
Author
Up And Up (solo) - Coldplay
Tuning: standard
Tempo: 82 bpm
Delay time: 549ms (live version - 732ms)

[Solo 1]
e|----------------------------------------------|
B|--------------------12---12b13r12-------------|
G|----------------12----------------14-12-------|
D|----------12-14-------------------------14-12-|(repeat x2)
A|-10-12-14-------------------------------------|
E|----------------------------------------------|

e|----------------------------------------------------------------------------------|
B|--------------------12---12b13r12--------13--13-12-10----10-----------------------|
G|----------------12----------------14-12---------------12----9-12--12-10-9----9----|
D|----------12-14-----------------------------------------------------------12---10-|
A|-10-12-14-------------------------------------------------------------------------|
E|----------------------------------------------------------------------------------|

e|----------------------------------------------|
B|--------------------12---12b13r12-------------|
G|----------------12----------------14-12-------|
D|----------12-14-------------------------14-12-|(repeat x2)
A|-10-12-14-------------------------------------|
E|----------------------------------------------|

e|---------------------------------------------------------------------------------------|
B|--------------------12---12b13r12--------15--12h13-15--12h13-15--15-13p12-----------12-|
G|----------------12----------------14-12-----------------------------------14-12--14-12-|
D|----------12-14------------------------------------------------------------------------|
A|-10-12-14------------------------------------------------------------------------------|
E|---------------------------------------------------------------------------------------|

e|--15--15-15-15-15-15-15-15-15/17----------15-15-15-15-15-15-15-15-15-15-15/17---------|
B|----------------------------------17--15---------------------------------------17--15-|
G|--------------------------------------------------------------------------------------|
D|--------------------------------------------------------------------------------------|
A|--------------------------------------------------------------------------------------|
E|--------------------------------------------------------------------------------------|

e|-15-15-15-15-15-15-15-15-15-15-15/17------20--20-19-17----17--------------------------------| 
B|--------------------------------------17---------------20----17-20--20-18\17-15-17----15----|
G|-----------------------------------------------------------------------------------17----16-|
D|--------------------------------------------------------------------------------------------|
A|--------------------------------------------------------------------------------------------|
E|--------------------------------------------------------------------------------------------|

e|--15--15-15-15-15-15-15-15-15/17----------15-15-15-15-15-15-15-15-15-15-15/17---------|
B|----------------------------------17--15---------------------------------------17--15-|
G|--------------------------------------------------------------------------------------|
D|--------------------------------------------------------------------------------------|
A|--------------------------------------------------------------------------------------|
E|--------------------------------------------------------------------------------------|

e|-15-15-15-15-15-15-15-15-15-15-15/17------13--------12-----------------------------------| 
B|--------------------------------------17------12h13-----12h13-15--15-13p12---------------|
G|---------------------------------------------------------------------------14-12---14-12-|
D|-----------------------------------------------------------------------------------------|
A|-----------------------------------------------------------------------------------------|
E|-----------------------------------------------------------------------------------------|

[Solo 2](repeat x4)
e|------------------------------------------------------------------------------|
B|-/13-13-13-13-13-13-12\-10\-8--8-8/--13-13-13-13-13-13-13-13/15--8--8-8-8-8-8-|
G|------------------------------------------------------------------------------|
D|------------------------------------------------------------------------------|
A|------------------------------------------------------------------------------|
E|------------------------------------------------------------------------------|

e|-------------------------------------------------------------|
B|-10b11r10--8--8-8--8---8-8---8---10b11r10--8--8-8--8---8-8---|
G|---------------------0-----0---0---------------------0-----0-|
D|-------------------------------------------------------------|
A|-------------------------------------------------------------|
E|-------------------------------------------------------------|

************************************

| /   slide up
| \   slide down
| h   hammer-on
| p   pull-off
| b   Bend
| br  Bend release

************************************

            
            
Suggest correction
Creating personal tab
Creating personal tab
You can edit any tab online and save it as your Personal.

You can edit, replace or remove any tab part or add personal notes – all changes will be seen only by you.

Personal tabs can be accessed anytime from any device, even offline.
Learn more »
comments
print report bad tab
2 comments total.
0 reply
Charles_Death_Metal 10 Nov 08, 2016 09:14 PM

Nice ! True to the original thanks !

0 reply
mozaaffendi 10 Apr 26, 2017 11:02 AM

Great tab. Sound original. Thank you mate

guest
You may want to rate the tab now too:
select rating
Wanna post a correction for this tab? Suggest correction