Oops, an error
Loading. Please wait.

Up And Up tab

version 2
version 2

Whole song

Interactive

5,347 views 63 this week
no commentswrite comment
1 2 3 4 5
x 12
add to favorites
×
Save as Personal and add changes to this tab that will be seen only by you. Learn more ›
×
You can save this tab as Personal to edit and correct it or add notes. All changes will be seen only by you. Learn more »
launch autoscroll
font size
0
reset
how to read this tab
guitar tuner
edit
Autoscroll
slow
fast
+/-
esc
set tempo
stop
Author
Transcribed by Paul Davids 

https://www.youtube.com/c/pauldavids

I've made a detailed video tutorial for this song:
____________________________________________________________________

                   https://youtu.be/g9cyjIKJJ5U
____________________________________________________________________



Intro/verse tabbed for guitar
      G                                 D
E||----------------------------------|------------------------------|
B||----------------------------------|--3-------3--------3----3--3--|
G||---2h-4----4----0-------0---2-----|--0h-2----2--------2----0--2--|
D||---0-------0----0-------0---0-----|--0----0-----0-4-----4--------|
A||----------------------------------|------------------------------|
E||---3----3-----3---(3)-3---3----3--|------------------------------|

  Em                             C(6)
-------------------------------|---------------------------------||
----------------------------0--|---------------------------------||
---0-----0----0-----0-----0----|--2-----0h2----2-----2-0-----0---||
---2--2--2----2-----2---2------|-----2---------------------2-----||
-------------------------------|--3-------3--3-----3-----3-------||
---0--------0-----0---0-----3--|---------------------------------||


Verse:
Slide guitar w/ volume swell & delay
|--------------------|-------------------|-------------------|--------------------||
|--12----------------|--7----------------|--5----------------|--5\----------------||
|--12----------------|--7----------------|--5----------------|--------------------||
|--------------------|-------------------|-------------------|--------------------|| 
|--------------------|-------------------|-------------------|--------------------||
|--------------------|-------------------|-------------------|--------------------||


Chorus:    Play each chord 16 times
   G                    D                    F                     C       
|--------------------|--------------------|--------------------|--------------------||
|--12----------------|--10----------------|--10----------------|---8----------------|| repeat 2 times
|--12----------------|--11----------------|--10----------------|---9----------------||
|--12----------------|--12----------------|--10----------------|--10----------------||
|--------------------|--------------------|--------------------|--------------------||
|--------------------|--------------------|--------------------|--------------------||

Halfway 2nd verse:
|----------------------------------|----------------------------------|--------------------------|
|--12--12--12--12--12--12--12--12--|--10--10--10--10--10--10--10--10--|--8--8--8--8--8--8--8--8--|
|----------------------------------|----------------------------------|--------------------------|
|----------------------------------|----------------------------------|--------------------------|
|----------------------------------|----------------------------------|--------------------------|
|----------------------------------|----------------------------------|--------------------------|
 
-------------------------||
--8--8--8--8--8--8--5/---||repeat 2 times
-------------------------||
-------------------------||
-------------------------||
-------------------------||

Guitar solo (check lesson for timing and tips: https://youtu.be/g9cyjIKJJ5U   )
-----------------------------------------------|-----------------------------------------------|
-----------------------12---12pbr--------------|-----------------------12---12pbr--------------|
------------------12---------------14-12-------|------------------12---------------14-12-------|
------------12-14------------------------14-12-|------------12-14------------------------14-12-|
--10-12S-14------------------------------------|--10-12S-14------------------------------------|
-----------------------------------------------|-----------------------------------------------|

 
-----------------------------------------------|-----------------------------------------------|
-----------------------12---12pbr--------12-13-|-----13-12-10----10----------------------------|
------------------12---------------14-12-------|--------------12----9-12---12-10-9----9--------|
------------12-14------------------------------|-----------------------------------12---10-----|
--10-12S-14------------------------------------|-----------------------------------------------|
-----------------------------------------------|-----------------------------------------------|


-----------------------------------------------|-----------------------------------------------|
-----------------------12---12pbr--------------|-----------------------12---12pbr--------------|
------------------12---------------14-12-------|------------------12---------------14-12-------|
------------12-14------------------------14-12-|------------12-14------------------------14-12-|
--10-12S-14------------------------------------|--10-12S-14------------------------------------|
-----------------------------------------------|-----------------------------------------------|


-----------------------------------------------|-----------------------------------------------|
-----------------------12---12pbr---------15---|----12-15-15---12-15-15---15-13-12-------------|
------------------12---------------14-12-------|-----------------------------------14-12----12-|
------------12-14------------------------------|-----------------------------------------------|
--10-12S-14------------------------------------|-----------------------------------------------|
-----------------------------------------------|-----------------------------------------------|

 
-------15--15-15-15-15-15-15-15-17------------|----15-15-15-15-15-15-15-15-15-15-17-----------|
--12---------------------------------17----15-|---------------------------------------17---15-|
----------------------------------------------|-----------------------------------------------|
----------------------------------------------|-----------------------------------------------|
----------------------------------------------|-----------------------------------------------|
----------------------------------------------|-----------------------------------------------|
 
----15-15-15-15-15-15-15-15-15-15-17--------20-|----20-19-17----17------------------------------|
---------------------------------------17------|-------------20----17-20---17-18-17----17-------|
-----------------------------------------------|------------------------------------19----17-19-|
-----------------------------------------------|------------------------------------------------|
-----------------------------------------------|------------------------------------------------|
-----------------------------------------------|------------------------------------------------|


--------15----15-15-15-15-15-15-15-17-----------|-----15-15-15-15-15-15-15-15-15-15-17-----------|
----------------------------------------17---15-|--17------------------------------------17---15-|
--16-17----17-----------------------------------|------------------------------------------------|
------------------------------------------------|------------------------------------------------|
------------------------------------------------|------------------------------------------------|
------------------------------------------------|------------------------------------------------|
      
-----15-15-15-15-15-15-15-15-15-15-17-----------|-------------------------------------------|
--17------------------------------------17---18-|----------17---------15---15---------------|
------------------------------------------------|----16-17------16-17---------17-16-14------|
------------------------------------------------|--------------------------------------17---|
------------------------------------------------|-------------------------------------------|
------------------------------------------------|-------------------------------------------|


Outro solo:
|---------------------------------------------|-------------------------------------------|
|---13-13-13-13-13-13----12----10---8-8-8-8-8-|--13-13-13-13-13-13----15----8-8-8-8-8-8-8-|
|---------------------------------------------|-------------------------------------------|
|---------------------------------------------|-------------------------------------------|
|---------------------------------------------|-------------------------------------------|
|---------------------------------------------|-------------------------------------------|
  
---------------------------------|----------------------------------||
--10br--8--8---8-8-8---8-8-8---8-|--10br--8--8---8-8-8---8-8-8---8--||repeat 4 times
---------------------------------|----------------------------------||
---------------------------------|----------------------------------||
---------------------------------|----------------------------------||
---------------------------------|----------------------------------||

            
            
Suggest correction
Creating personal tab
Creating personal tab
You can edit any tab online and save it as your Personal.

You can edit, replace or remove any tab part or add personal notes – all changes will be seen only by you.

Personal tabs can be accessed anytime from any device, even offline.
Learn more »
comments
print report bad tab
guest
You may want to rate the tab now too:
select rating
Wanna post a correction for this tab? Suggest correction