Oops, an error
Loading. Please wait.
We have an official Viva La Vida tab made by UG professional guitarists. Check out the tab »
×
958 views 1 this week
no commentswrite comment
1 2 3 4 5
x 3
add to favorites
×
Save as Personal and add changes to this tab that will be seen only by you. Learn more ›
×
You can save this tab as Personal to edit and correct it or add notes. All changes will be seen only by you. Learn more »
launch autoscroll
font size
0
reset
guitar tuner
backing track
0:00
0:00
edit
Autoscroll
slow
fast
+/-
esc
set tempo
stop
Author
Difficulty
Viva La Vida
A UK number 1 for Coldplay in 2008. Bass performance Guy Berryman.
Tab by bass50611.  Think you will find, unlike other bass tabs,
Mine is more or less as original and includes the bridge too!!
NOTE THE TUNING.  Comments at bass254@btinternet.com 

Intro:                                               (Play This x2)
G||----------------------------------------------------------------
D||-11--11--11--11--13--13--13-13--13------------------------------
A||-----------------------------------11--11--11--11--8--8--8-8--8-
D#|----------------------------------------------------------------

Verse 1:                                             (Play This x2)
G||----------------------------------------------------------------
D||-11--11--11--11--13--13--13-13--13------------------------------
A||-----------------------------------11--11--11--11--8--8--8-8--8-
D#|----------------------------------------------------------------

Instrumental 1:                                      (Play This x2)
G||----------------------------------------------------------------
D||-11--11--11--11--13--13--13-13--13------------------------------
A||-----------------------------------11--11--11--11--8--8--8-8--8-
D#|----------------------------------------------------------------

Verse 2: (Repeat Verse 1)

Verse 3: (Repeat Verse 1)

Chorus:
G||-------------------------------------------------------
D||-------------------------------------------------------
A||-------------------------------------------------------
D#|-10--10--10--10---0--0--0--0---5--5--5--5---2--2--2--2-

G||-------------------------------------------------
D||-------------------------------------------------
A||-4--4--4--4--------------------------------------
D#|------------0--0--0--0---5--5--5--5---2--2--2--2-

G||-------------------------------------------------
D||--------------------------------------3--3--3--3-
A||-4--4--4--4---6--6--6--6---3--3--3--3------------
D#|-------------------------------------------------

G||-------------------------------------------------
D||-------------------------------------------------
A||-4--4--4--4--------------------------------------
D#|------------0--0--0--0---5--5--5--5---2--2--2--2-

Repeat Instrumental 1: 

For Verse 4 Repeat Verse 1:

Verse 5:                                            (Play This x2)
G||---------------------------------------------------------------
D||---------------------------------------------------------------
A||----------------------------------11--11--11--11--8--8--8-8--8-
D#|-10--10--10--10--12--12--12-12--12-----------------------------

Repeat Chorus:

Bridge: (No Vocals)
G||----------------------------------------------------------------------
D||-11--11--11--11-------------11--11--11--11-------------11--11--11--11-
A||---------------8--8--8-8--8---------------8--8--8-8--8----------------
D#|----------------------------------------------------------------------

G||--------------------------------------
D||--------------------------------------
A||-8--8--8-8--8---6--6-6--6---6--6-6--6-
D#|--------------------------------------

Instrumental 2:                       (Play This x2)
G||-------------------------------------------------
D||-------------------------------------------------
A||-4--4--4--4--------------------------------------
D#|------------0--0--0--0---5--5--5--5---2--2--2--2-

Final Chorus:
G||-------------------------------------------------
D||-------------------------------------------------
A||-4--4--4--4--------------------------------------
D#|------------0--0--0--0---5--5--5--5---2--2--2--2-

G||-------------------------------------------------
D||-------------------------------------------------
A||-4--4--4--4--------------------------------------
D#|------------0--0--0--0---5--5--5--5---2--2--2--2-

                                                    Break/End)
G||---------------------------------------------------------
D||-------------------------6--6--6--6---3--3--3--3---------
A||-4--4--4--4---6--6--6--6--------------------------4------
D#|---------------------------------------------------------

SONG FADES OUT WITHOUT ANY BASS.
Suggest correction
Creating personal tab
Creating personal tab
You can edit any tab online and save it as your Personal.

You can edit, replace or remove any tab part or add personal notes – all changes will be seen only by you.

Personal tabs can be accessed anytime from any device, even offline.
Learn more »
Give kudos to tab author, rate the tab!
1 2 3 4 5
comments
print report bad tab
guest
You may want to rate the tab now too:
select rating
Wanna post a correction for this tab? Suggest correction