Oops, an error
Loading. Please wait.

We Never Change Bass Tab

version 1
version 1

Whole song

Interactive

525 views 3 this week
no commentswrite comment
1 2 3 4 5
2 more votes to show rating
add to favorites
launch autoscroll
font size
0
reset
guitar tuner
Autoscroll
slow
fast
+/-
esc
set tempo
stop
Help us to improve Ultimate-Guitar.com Take our survey!
×
Author
*-We Never Change-*
2 numbers in a column with 'o' atfer them are the time sigs

Play nothing til the prechorus (i wanna fly..):
|-------|----|-----|----|----|----|---|---|---|----|-------|
|3o-----|----|-----|----|----|----|---|---|---|----|-------|
|4o-2---|----|-----|----|----|----|---|---|---|----|-------|
|-------|-2--|0h2--|----|----|-0--|---|---|---|-7-|-2------|

|------|---|---|----|---|---|---|
|------|---|---|----|---|---|---|
|------|---|---|----|---|---|---|
|-0h2--|---|---|-0--|---|---|---|

Chorus
|-----|-----|-----|--------|-----|-----|-----|-------|
|-----|-----|-----|------2-|-----|-----|-----|-------| Rpt
|-0---|-0---|-0---|-2--(2)-|-4---|(4)--|(4)--|-4-----|
|-----|-----|-----|--------|-----|-----|-----|-------|

Postchorus (so i wanna live..)
|------|-----|----|----|----|-----|----|----|------|
|------|-----|----|----|----|-----|----|----|------|
|------|-----|----|----|----|-----|----|----|------|
|-7---|-2---|----|----|----|-0---|----|----|-------|

Verse 2
|-----|----|----|----|-----|-----|----|----|
|-----|----|----|----|-----|-----|----|----| Repeat
|-----|----|----|----|-----|-----|----|----|
|-2---|----|----|----|-0---|(0)--|----|----|

Prechorus 2
|-----|----|---|---|---|----|---|---|---|----|-------|
|-----|----|---|---|---|----|---|---|---|----|-------|
|-2---|----|---|---|---|----|---|---|---|----|-------|
|-----|-2--|---|---|---|-0--|---|---|---|-7-|-2------|

|---|---|---|----|---|---|---|
|---|---|---|----|---|---|---|
|---|---|---|----|---|---|---|
|---|---|---|-0--|---|---|---|

Play Chorus
Postchorus twice

end of 2nd
post chorus Bridge
|-------||-----|------|------|--------|
|-------||-----|------|------|--------|
|---7-5-||-----|------|------|-55-5h7-|
|-------||-7---|(7)---|-7----|--------|

|-----|----|----|----|-----|------|-----|----------|
|-----|----|----|----|-----|------|-----|----------|
|-----|----|----|--75|-----|------|-----|-55-------|
|-0---|----|----|----|-7---|(7)---|-7---|----12----|

|-----|----|----|----|-----|----|----|----|
|-----|----|----|----|-----|----|----|----|
|-----|----|----|----|-----|----|----|----|
|-0---|----|----|----|-7---|----|----|----|

Outro
|-----|----|----|----|-----|----|----|----|
|-----|----|----|----|-----|----|----|----|
|-----|----|----|----|-----|----|----|----|x3
|-7---|----|-2--|----|-0---|----|----|----|
Suggest correction
Give kudos to tab author, rate the tab!
1 2 3 4 5
comments
print report bad tab
guest
You may want to rate the tab now too:
select rating
Wanna post a correction for this tab? Suggest correction