Oops, an error
Loading. Please wait.
We have an official Yellow tab made by UG professional guitarists. Check out the tab »
×

Yellow Acoustic chords

version 13
version 13

Whole song

Video

  • The tuning, rhythm and full structure.
  • Provides 2 different ways of playing this song. Th... Show more
91,522 views 54 this week
6 commentsread comments
1 2 3 4 5
x 46
add to favorites
×
Save as Personal and add changes to this tab that will be seen only by you. Learn more ›
×
You can save this tab as Personal to edit and correct it or add notes. All changes will be seen only by you. Learn more »
launch autoscroll
font size
0
reset
transpose
0
reset
simplify chords
display chords
guitar tuner
backing track
0:00
0:00
edit
Autoscroll
slow
fast
+/-
esc
set tempo
stop
Author
Difficulty
Strumming Is this strumming pattern correct? Yes No
All 86 bpm
1
 
&
 
2
 
&
 
3
 
&
 
4
 
&
 
Listen
Hey guys this is my tab for "Yellow" by Coldplay. I am positive this sounds like the song :)

**TUNING**: E  A  B  G  B  D# ( 100%correct)

CHORDS:

    B  Badd11  F#6  Emaj7  G#m  F#m11
D#|-0----0-----0-----0-----0----1------||
 B|-0----0-----0-----0-----0----0------||
 G|-8----9-----3-----1-----4----2------||
 B|-0----0-----0-----0-----4----2------||
 A|-9----9-----4-----2-----x----x------||
 E|-7----7-----2-----0-----4----2------||


[INTRO]

B Badd11 X2


[INTERLUDE]

D#|----8---8---8---8---8---8---8---8------8--8--8--8--8--8--8--8--||
 B|----0---0---0---0---0---0---0---0------0--0--0--0--0--0--0--0--||
 G|-9b11--11--11--11--11--11--11--11---11r9--9--9--9--9--9--9--9--||
 B|---------------------------------------------------------------||
 A|---------------------------------------------------------------||
 E|---------------------------------------------------------------||


[VERSE]

B                                         F#6 
Look at the stars, look how they shine for you,
                     Emaj7
and everything you do, yeah they were all yellow.
B                              F#6 
I came along, I wrote a song for you.
                        Emaj7 
And all the things you do, and it was called yellow.
B                     F#6
So when I took my turn.
                         Emaj7                         B  Badd11  B 
Oh, what a thing to have done, and it was all yellow

Emaj7    G#m         F#6
Your skin,oh yeah your skin and bones.
Emaj7    G#m    F#6
Turn in...to something beautiful.
Emaj7       G#m           F#6          Emaj7
But you know...you know I love you so 
Emaj7
You know I love you so.


[INTERLUDE]

D#|----8---8---8---8---8---8---8---8------8--8--8--8--8--8--8--8--||
 B|----0---0---0---0---0---0---0---0------0--0--0--0--0--0--0--0--||
 G|-9b11--11--11--11--11--11--11--11---11r9--9--9--9--9--9--9--9--||
 B|---------------------------------------------------------------||
 A|---------------------------------------------------------------||
 E|---------------------------------------------------------------||


[SECOND VERSE]


B                                 F#6
I swam across_I jumped across for you.
                      Emaj7  
Oh, what a thing to do, cos you were all yellow.
B                              F#6 
I drew a line_I drew a line for you.
                      Emaj7                   B  Badd11  B
Oh, what a thing to do_and it was all yellow.


[CHORUS]

Emaj7    G#m          F#6    
Your skin...oh yeah your skin and bones
Emaj7   G#m      F#6
Turn in...to something beautiful
Emaj7       G#m           F#6              Emaj7
And you know for you, I'd bleed myself dry.
Emaj7
For you I'd bleed myself dry.


[INTERLUDE]

D#|----8---8---8---8---8---8---8---8------8--8--8--8--8--8--8--8--||
 B|----0---0---0---0---0---0---0---0------0--0--0--0--0--0--0--0--||
 G|-9b11--11--11--11--11--11--11--11---11r9--9--9--9--9--9--9--9--||
 B|---------------------------------------------------------------||
 A|---------------------------------------------------------------||
 E|---------------------------------------------------------------||


[BRIDGE]

B                                 F#6 
It's true,look how the shine for you.
                        Emaj7
Look how they shine for you.
                         B
Look how they shine for you.
                        F#6
Look how they shine for you
                        Emaj7
Look how they shine for you.
Emaj7
Look how they shine.
            

[OUTRO]

B                                        F#m11
Look at the stars,look how they shine for you.
                           Emaj7
And all the things that you do.

Hope this helped :D

            
            
Suggest correction
Creating personal tab
Creating personal tab
You can edit any tab online and save it as your Personal.

You can edit, replace or remove any tab part or add personal notes – all changes will be seen only by you.

Personal tabs can be accessed anytime from any device, even offline.
Learn more »
comments
print report bad tab
6 comments total. Showing first comments.
0 reply
corile 10 Jun 14, 2013 10:41 AM

Not perfect, but much better than the other tabs! Sounds a lot like the original. Gj! :D

-2 reply
guitargodessZee 10 Sep 15, 2013 09:50 AM

transpose it up one and it's better!

0 reply
stevieclark87 10 Oct 12, 2013 02:35 AM

Absolutely fine, pretty much how i played it way back when. Well done.

guest
You may want to rate the tab now too:
select rating
Wanna post a correction for this tab? Suggest correction