Oops, an error
Loading. Please wait.

Stille tab

version 1
version 1

Whole song

Interactive

1,181 views 1 this week
2 commentsread comments
1 2 3 4 5
2 more votes to show rating
add to favorites
×
Save as Personal and add changes to this tab that will be seen only by you. Learn more ›
×
You can save this tab as Personal to edit and correct it or add notes. All changes will be seen only by you. Learn more »
launch autoscroll
font size
0
reset
how to read this tab
guitar tuner
edit
Autoscroll
slow
fast
+/-
esc
set tempo
stop
Author
First off, i am not 100% sure how to play this song correctly, therefore i am posting 2 
of the song, with little altering in it. Secondly you need to let the notes really ring here.


|-----------------------------------------------|
|----10-------------10-----8------------------10|
|---------10p9-9------9/7---7/6--7--9--10-------|
|--------------10-------7-----7--9--9--12-------|
|--------------------------------------12-------|
|-----------------------------------------------|

and repeat.


HERE VERSION 2:


|-----------------------------------------------|
|----10-------------10-----8------------------10|
|---------10p9-9------9/7---7/6--7--9--10-------|
|--------------10-------7-----7--9--9--12-------|
|--------------------------------------12-------|
|--------------12-------10----9--10-12----------|


I really think theres something wrong here, so please if you have any corrections write 
in the comments section! Thanks.

Tabbed by martenc

martencorrigan@aol.com

ColdWorld on Metal-archives : http://www.metal-archives.com/band.php?id=57431

            
            
Suggest correction
Creating personal tab
Creating personal tab
You can edit any tab online and save it as your Personal.

You can edit, replace or remove any tab part or add personal notes – all changes will be seen only by you.

Personal tabs can be accessed anytime from any device, even offline.
Learn more »
Give kudos to tab author, rate the tab!
1 2 3 4 5
comments
print report bad tab
2 comments total.
0 reply
sabaoon 10 Nov 30, 2009 09:04 AM

I tried to play it, but it doesn't sound good, I don't know what's wrong though

0 reply
SpiderEule 72 Dec 22, 2009 12:37 PM

|-----------------------------------------------|
|----10-------------10-----8--------------------|
|---------10p9-9------9/7---7/6--7--9---10---10-|
|--------------10-------8-----7--9--10--12------|
|--------------7--------5-----4--5--7---12------|
|-----------------------------------------------|

My idea of it.

guest
You may want to rate the tab now too:
select rating
Wanna post a correction for this tab? Suggest correction