Oops, an error
Loading. Please wait.

Closer Tab

247 views 42 this week
no commentswrite comment
1 2 3 4 5
2 more votes to show rating
add to favorites
launch autoscroll
font size
0
reset
how to read this tab
guitar tuner
Autoscroll
slow
fast
+/-
esc
set tempo
stop
Help us to improve Ultimate-Guitar.com Take our survey!
×
Author
Difficulty
advanced
About this tab version
Cole Rolland's Closer by The Chainsmokers. Was this info helpful? Yes No
Cole Rolland: https://www.youtube.com/channel/UCAczJcKcJ_cA5w_PVS3o8aw
Original Video: https://www.youtube.com/watch?v=KCuCEAwBq2Q


[Intro]
e|------------------------------------------------------------------x--x-------|
B|------------------------------------------------------------------x--x-------|
G|--15--13--13---15--15--13--13---17--17--13--13---15--15--13--13---x--x-------|
D|------------------------------------------------------------------x--x-------|
A|--13--11--11---13--13--11--11---15--15--11--11---13--13--11--11---x--x-------|
E|------------------------------------------------------------------x--x-------|

[Verse]
e|------------------------------------------------------------------x--x-------|
B|------------------------------------------------------------------x--x-------|
G|--15--13--13---15--15--13--13---17--17--13--13---15--15--13--13---x--x-------|
D|------------------------------------------------------------------x--x-------| x2
A|--13--11--11---13--13--11--11---15--15--11--11---13--13--11--11---x--x-------|
E|------------------------------------------------------------------x--x-------|

e|---------------------------------------------------------------------------|
B|--------------16-----------------------------------------------------------|
G|--13----13-15----15-13----15----15-----------------------------------------|
D|-----13----------------13----13----13-13-13--------------------------------|
A|---------------------------------------------------------------------------|
E|---------------------------------------------------------------------------|

e|---------------------------------------------------------------------------|
B|---------------------------------------------------------------------------|
G|-13----13----13-13-13----13----15----15----13------------------------------|
D|----13----13----------13----13----13----13----13---------------------------|
A|---------------------------------------------------------------------------|
E|---------------------------------------------------------------------------|

e|---------------------------------------------------------------------------|
B|-------------16------------------------------------------------------------|
G|-13----13-15----15-13----13----15----15------------------------------------|
D|----13----------------13----13----13----13-13-13---------------------------|
A|---------------------------------------------------------------------------|
E|---------------------------------------------------------------------------|

e|-------------16-15---------------------------------------------------------|
B|-------------------16------------------------------------------------------|
G|-13----13-15----------15-13----15-15-13------------------------------------|
D|----13----------------------13---------------------------------------------|
A|---------------------------------------------------------------------------|
E|---------------------------------------------------------------------------|

e|---------------------------------------------------------------------------|
B|-16------------------------------------------------------------------------|
G|----------17-15-------13-------------17-------15---------------------------|
D|----13-13-------13-13----13-13-13-13----13-13------------------------------|
A|---------------------------------------------------------------------------|
E|---------------------------------------------------------------------------|

e|-------16----16-------18-------18----18------------------------------------|
B|----------------16-------16-------------16---------------------------------|
G|----------------------------------------------13---------------------------|
D|-13-13----13-------13-------13----13-------13------------------------------|
A|---------------------------------------------------------------------------|
E|---------------------------------------------------------------------------|

e|---------------------------------------------------------------------------|
B|-16------------------------------------------------------------------------|
G|----------17-15-------13-------------17-------15---------------------------|
D|----13-13-------13-13----13-13-13-13----13-13------------------------------|
A|---------------------------------------------------------------------------|
E|---------------------------------------------------------------------------|

e|---------------------------------------------------------------------------|
B|---------------------------------------------------------------------------|
G|-17--13--13--15--15--13--13--15--------------------------------------------|
D|---------------------------------------------------------------------------|
A|-15--11--11--13--13--11--11--13--------------------------------------------|
E|---------------------------------------------------------------------------|

[Pre-Chorus]
he does some weird thing with the volume knob here
e|---------------------------------------------------------------------------|
B|---------------------------------------------------------------------------|
G|-------13-15-------13-15-------13-15-------13-15---------------------------|
D|-13-15-------13-15-------13-15-------13-15---------------------------------|
A|---------------------------------------------------------------------------|
E|---------------------------------------------------------------------------|

e|-16----15----16----15----16----15----16----15------------------------------|
B|----------16----------16----------16----------16---------------------------|
G|----13----------13----------13----------13---------------------------------|
D|---------------------------------------------------------------------------|
A|---------------------------------------------------------------------------|
E|---------------------------------------------------------------------------|

e|---------------------------------------------------------------------------|
B|---------------------------------------------------------------------------|
G|-15-17-15-13-15-17-15-13-15-17-15-13-15-17-15-13---------------------------|
D|---------------------------------------------------------------------------|
A|---------------------------------------------------------------------------|
E|---------------------------------------------------------------------------|

e|-16-15-------16-15-------16-15-------16-15---------------------------------|
B|-------16----------16----------16----------16------------------------------|
G|----------15----------15----------15----------15---------------------------|
D|---------------------------------------------------------------------------|
A|---------------------------------------------------------------------------|
E|---------------------------------------------------------------------------|

e|---------------------------------------------------------------------------|
B|---------------------------------------------------------------------------|
G|-------13-15-------13-15-------13-15-------13-15---------------------------|
D|-13-15-------13-15-------13-15-------13-15---------------------------------|
A|---------------------------------------------------------------------------|
E|---------------------------------------------------------------------------|

e|-16----15----16----15----16----15------------------------------------------|
B|----------16----------16----------16---------------------------------------|
G|----13----------13----------13-------13-15---------------------------------|
D|---------------------------------------------------------------------------|
A|---------------------------------------------------------------------------|
E|---------------------------------------------------------------------------|

e|---------------------------------------------------------------------------|
B|---------------------------------------------------------------------------|
G|-15-13-13-15-15-13-13-17-17-13-13-15-15-13---------------------------------|
D|---------------------------------------------------------------------------|
A|---------------------------------------------------------------------------|
E|---------------------------------------------------------------------------|

[Chorus]
e|---------------------------------------------------------------------------|
B|---------------------------------------------------------------------------|
G|-15--13--13--15--15--13--13--17--17--13--13--15--15--13--13--15------------| x2
D|---------------------------------------------------------------------------|
A|-13--11--11--13--13--11--11--15--15--11--11--13--13--11--11--13------------|
E|---------------------------------------------------------------------------|

e|---------------------------------------------------------------------------|
B|---------------------------------------------------------------------------|
G|-15--17--13--15--15--13--13--17--17--13--13--15--15--13--13--15------------|
D|---------------------------------------------------------------------------|
A|-13--15--11--13--13--11--11--15--15--11--11--13--13--11--11--13------------|
E|---------------------------------------------------------------------------|

e|------------------------------------------------------------------x-x------|
B|------------------------------------------------------------------x-x------|
G|-15--13--13--15--15--13--13--17--17--13--13--15--15--13--13--15---x-x------| 
D|------------------------------------------------------------------x-x------|
A|-13--11--11--13--13--11--11--15--15--11--11--13--13--11--11--13---x-x------|
E|------------------------------------------------------------------x-x------|


[Verse 2]
e|---------------------------------------------------------------------------|
B|--------------16-----------------------------------------------------------|
G|--13----13-15----15-13----15----15-----------------------------------------|
D|-----13----------------13----13----13-13-13--------------------------------|
A|---------------------------------------------------------------------------|
E|---------------------------------------------------------------------------|

e|---------------------------------------------------------------------------|
B|---------------------------------------------------------------------------|
G|-13----13----13-13-13----13----15----15----13------------------------------|
D|----13----13----------13----13----13----13----13---------------------------|
A|---------------------------------------------------------------------------|
E|---------------------------------------------------------------------------|

e|---------------------------------------------------------------------------|
B|-------------16------------------------------------------------------------|
G|-13----13-15----15-13----13----15----15------------------------------------|
D|----13----------------13----13----13----13-13-13---------------------------|
A|---------------------------------------------------------------------------|
E|---------------------------------------------------------------------------|

e|-------------16-15---------------------------------------------------------|
B|-------------------16------------------------------------------------------|
G|-13----13-15----------15-13----15-15-13------------------------------------|
D|----13----------------------13---------------------------------------------|
A|---------------------------------------------------------------------------|
E|---------------------------------------------------------------------------|

e|---------------------------------------------------------------------------|
B|-16------------------------------------------------------------------------|
G|----------17-15-------13-------------17-------15---------------------------|
D|----13-13-------13-13----13-13-13-13----13-13------------------------------|
A|---------------------------------------------------------------------------|
E|---------------------------------------------------------------------------|

e|-------16----16-------18-------18----18------------------------------------|
B|----------------16-------16-------------16---------------------------------|
G|----------------------------------------------13---------------------------|
D|-13-13----13-------13-------13----13-------13------------------------------|
A|---------------------------------------------------------------------------|
E|---------------------------------------------------------------------------|

e|---------------------------------------------------------------------------|
B|-16------------------------------------------------------------------------|
G|----------17-15-------13-------------17-------15---------------------------|
D|----13-13-------13-13----13-13-13-13----13-13------------------------------|
A|---------------------------------------------------------------------------|
E|---------------------------------------------------------------------------|

e|---------------------------------------------------------------------------|
B|---------------------------------------------------------------------------|
G|-17--13--13--15--15--13--13--15--------------------------------------------|
D|---------------------------------------------------------------------------|
A|-15--11--11--13--13--11--11--13--------------------------------------------|
E|---------------------------------------------------------------------------|

[Pre-Chorus 2] x2                           
e|---------------------------------------------------------------------------|
B|---------------------------------------------------------------------------|
G|-------13-15-------13-15-------13-15-------13-15---------------------------|
D|-13-15-------13-15-------13-15-------13-15---------------------------------|
A|---------------------------------------------------------------------------|
E|---------------------------------------------------------------------------|

e|-16----15----16----15----16----15----16----15------------------------------|
B|----------16----------16----------16----------16---------------------------|
G|----13----------13----------13----------13---------------------------------|
D|---------------------------------------------------------------------------|
A|---------------------------------------------------------------------------|
E|---------------------------------------------------------------------------|

e|---------------------------------------------------------------------------|
B|---------------------------------------------------------------------------|
G|-15-17-15-13-15-17-15-13-15-17-15-13-15-17-15-13---------------------------|
D|---------------------------------------------------------------------------|
A|---------------------------------------------------------------------------|
E|---------------------------------------------------------------------------|

e|-16-15-------16-15-------16-15---------------------------------------------|
B|-------16----------16----------16------------------------------------------|
G|----------15----------15----------15---------------------------------------|
D|---------------------------------------------------------------------------|
A|---------------------------------------------------------------------------|
E|---------------------------------------------------------------------------|

[Bridge]
                                                        play on 4th time around
e|--16-15-------16-15-------16-15-------|-16-15-------||---------------------|
B|--------16-11-------16-11-------16-11-|-------16-11-||---------------------|
G|--------------------------------------|-------------||--13-12--------------|
D|--------------------------------------|-------------||--------13-8---------|
A|--------------------------------------|-------------||---------------------|
E|--------------------------------------|-------------||---------------------|

e|---------------------------------------------------------------------------|
B|---------------------------------------------------------------------------|
G|------------------------------------------------13--13-15-13-15------------|
D|---------------------------------13--13-15-13-15--15-----------------------|
A|---------11--11-13-11-13-15-13-15--15--------------------------------------|
E|-13-11-13--13--------------------------------------------------------------|

e|--------------------13----13-16-13-16-18-13----16-13-----------------------|
B|--13----13-16-13-16----16-------------------16-------16\\\\\\--------------|
G|-----15--------------------------------------------------------------------|
D|---------------------------------------------------------------------------|
A|---------------------------------------------------------------------------|
E|---------------------------------------------------------------------------|

[Solo/outro]
e|----------------------|--------------------------|--------------------------|
B|--/18-16-----13-------|--------------------------|--------------------------|
G|---------15-----15-13-|-/17--13------------------|--------------------------|
D|----------------------|----------13--------------|----------/15--13---------|
A|----------------------|--------------15--13--11--|--/15--11-----------------|
E|----------------------|--------------------------|--------------------------|

e|-------------------------------------------------------13----13/18----------|
B|-------------------------------------13----13-16-13-16----16----------------|
G|----------------------------13----13----15----------------------------------|
D|----------13----13-15-13-15----15-------------------------------------------|
A|-15-13-15----15-------------------------------------------------------------|
E|----------------------------------------------------------------------------|

e|--16--18b--16--------|---------------------|---------------------------------|
B|-------------18------|------------------13-|---------------------------------|
G|----------------18d--|------------13-15----|--15--13--13--15--15--13--13--17-|
D|---------------------|------13-15----------|---------------------------------|
A|---------------------|---15----------------|------------------------------15-|
E|---------------------|---------------------|---------------------------------|

e|---------------------------------------------------------|
B|---------------------------------------------------------|
G|--17--13--13--15--15--13--13--15-------------------------|
D|---------------------------------------------------------|
A|--15--11--11--13--13--11--11--13-------------------------|
E|---------------------------------------------------------|


************************************

| x  Dead note
| \  Slide down
| /  Slide up
| b  Bend
| d  Dive

************************************
Suggest correction
Give kudos to tab author, rate the tab!
1 2 3 4 5
comments
print report bad tab
guest
You may want to rate the tab now too:
select rating
Wanna post a correction for this tab? Suggest correction