Oops, an error
Loading. Please wait.

More Than Gravity tab

version 2
version 2

Whole song

  • This is a tab on how to play this song in standard... Show more
  • The D string is one step higher than in standard t... Show more
100 views 18 this week
no commentswrite comment
1 2 3 4 5
3 more votes to show rating
add to favorites
×
Save as Personal and add changes to this tab that will be seen only by you. Learn more ›
×
You can save this tab as Personal to edit and correct it or add notes. All changes will be seen only by you. Learn more »
launch autoscroll
font size
0
reset
how to read this tab
guitar tuner
edit
Autoscroll
slow
fast
+/-
esc
set tempo
stop
About this tab version
The D string is one step higher than in standard tuning (EAEGBe), it makes everything easier. Was this info helpful? Yes No
[Intro]
e|-------0-----0-----0-----0-----0-----0-----0-----0-|----0-----0-----0-----0-----0-----0-----0-----0--|
B|-------0-----0-----0-----0-----0-----0-----0-----0-|----0-----0-----0-----0-----0-----0-----0-----0--|
G|---------------------------------------------------|-------------------------------------------------|
E|---2p0----0----4p0----0-----2p0----0----4p0---0----|-------0-----2-----0-----------0-----2-----0-----|
A|---------------------------------------------------|2h4---------------------2h4----------------------|
E|---------------------------------------------------|-------------------------------------------------|

e|-------0-----0-----0----|-0-----0-----0-----0-----0--|
B|-------0-----0-----0----|-0-----0-----0-----0-----0--|
G|------------------------|----------------------------|
E|---2p0----0----4p0----0-|----2p0----0----4p0---0-----|
A|------------------------|----------------------------|
E|------------------------|----------------------------|

[Verse]
e|-------0-----0-----0----|-0-----0-----0-----0-----0--|
B|-------0-----0-----0----|-0-----0-----0-----0-----0--|
G|------------------------|----------------------------|
E|---2p0----0----4p0----0-|----2p0----0----4p0---0-----|
A|------------------------|----------------------------|
E|------------------------|----------------------------|
There's not a simple explanation for the things that I feel

e|-------0-----0-----0----|-0-----0-----0-----0-----0--|
B|-------0-----0-----0----|-0-----0-----0-----0-----0--|
G|------------------------|----------------------------|
E|---2p0----0----4p0----0-|----2p0----0----4p0---0-----|
A|------------------------|----------------------------|
E|------------------------|----------------------------|

e|-------0-----0-----0----|-0-----0-----0-----0-----0--|
B|-------0-----0-----0----|-0-----0-----0-----0-----0--|
G|------------------------|----------------------------|
E|---2p0----0----4p0----0-|----2p0----0----4p0---0-----|
A|------------------------|----------------------------|
E|------------------------|----------------------------|
There's no one word to tell you why I do the things that I do

e|-------0-----0-----0----|-0-----0-----0-----0-----0--|
B|-------0-----0-----0----|-0-----0-----0-----0-----0--|
G|------------------------|----------------------------|
E|---2p0----0----4p0----0-|----2p0----0----4p0---0-----|
A|------------------------|----------------------------|
E|------------------------|----------------------------|

e|-----0-----0-----0-----0-|----0-----0-----0-----0----|
B|-----0-----0-----0-----0-|----0-----0-----0-----0----|
G|-------------------------|---------------------------|
E|--------0-----2-----0----|-------0-----2-----0-------|
A|--2h4--------------------|-2h4-----------------------|
E|-------------------------|---------------------------|
I don't need you, I just want you

e|-------0-----0-----0----|-0-----0-----0-----0-----0--|
B|-------0-----0-----0----|-0-----0-----0-----0-----0--|
G|------------------------|----------------------------|
E|---2p0----0----4p0----0-|----2p0----0----4p0---0-----|
A|------------------------|----------------------------|
E|------------------------|----------------------------|

e|-----0-----0-----0-----0-|----0-----0-----0-----0----|
B|-----0-----0-----0-----0-|----0-----0-----0-----0----|
G|-------------------------|---------------------------|
E|--------0-----2-----0----|-------0-----2-----0-------|
A|--2h4--------------------|-4-------------------------|
E|-------------------------|---------------------------|
I can't love you, I'm too scared to

e|-------0-----0-----0----|-0-----0-----0-----0-----0--|
B|-------0-----0-----0----|-0-----0-----0-----0-----0--|
G|------------------------|----------------------------|
E|---2p0----0----4p0----0-|----2p0----0----4p0---0-----|
A|------------------------|----------------------------|
E|------------------------|----------------------------|

e|-------0-----0-----0----|-0-----0-----0-----0-----0--|
B|-------0-----0-----0----|-0-----0-----0-----0-----0--|
G|------------------------|----------------------------|
E|---2p0----0----4p0----0-|----2p0----0----4p0---0-----|
A|------------------------|----------------------------|
E|------------------------|----------------------------|
It's not a trick that's up my sleeve, it's just the heart inside me

e|-------0-----0-----0----|-0-----0-----0-----0-----0--|
B|-------0-----0-----0----|-0-----0-----0-----0-----0--|
G|------------------------|----------------------------|
E|---2p0----0----4p0----0-|----2p0----0----4p0---0-----|
A|------------------------|----------------------------|
E|------------------------|----------------------------|

e|-------0-----0-----0----|-0-----0-----0-----0-----0--|
B|-------0-----0-----0----|-0-----0-----0-----0-----0--|
G|------------------------|----------------------------|
E|---2p0----0----4p0----0-|----2p0----0----4p0---0-----|
A|------------------------|----------------------------|
E|------------------------|----------------------------|
And I spent so much time fighting the man that I am trying to be

e|-------0-----0-----0----|-0-----0-----0-----0-----0--|
B|-------0-----0-----0----|-0-----0-----0-----0-----0--|
G|------------------------|----------------------------|
E|---2p0----0----4p0----0-|----2p0----0----4p0---0-----|
A|------------------------|----------------------------|
E|------------------------|----------------------------|

e|-----0-----0-----0-----0-|----0-----0-----0-----0----|
B|-----0-----0-----0-----0-|----0-----0-----0-----0----|
G|-------------------------|---------------------------|
E|--------0-----2-----0----|-------0-----2-----0-------|
A|--2h4--------------------|-2h4-----------------------|
E|-------------------------|---------------------------|
Keep saying, I can't give in, I'm too proud

e|-------0-----0-----0----|-0-----0-----0-----0-----0--|
B|-------0-----0-----0----|-0-----0-----0-----0-----0--|
G|------------------------|----------------------------|
E|---2p0----0----4p0----0-|----2p0----0----4p0---0-----|
A|------------------------|----------------------------|
E|------------------------|----------------------------|

e|-----0-----0-----0-----0-|----0-----0-----0-----0----|
B|-----0-----0-----0-----0-|----0-----0-----0-----0----|
G|-------------------------|---------------------------|
E|--------0-----2-----0----|-------0-----2-----0-------|
A|--2h4--------------------|-4-------------------------|
E|-------------------------|---------------------------|
To think what I can't say out loud

e|-------0-----0-----0-----0-|----0-----0-----0-----0--|
B|-------0-----0-----0-----0-|----0-----0-----0-----0--|
G|---------------------------|-------------------------|
E|---2p0----0----4p0----0----|-0-----0-----0-----0-----|
A|---------------------------|-------------------------|
E|---------------------------|-------------------------|

[Chorus]
e|-------0-----0-----0-----0-|----0-----0-----0-----0-----0-----0-----0-----0-----0-----0-----0-----0--|
B|-------0-----0-----0-----0-|----0-----0-----0-----0-----0-----0-----0-----0-----0-----0-----0-----0--|
G|---------------------------|-------------------------------------------------------------------------|
E|---------------------------|-------------------------------------------------------------------------|
A|----0-----0-----0-----0----|-4-----4-----2-----2-----0-----0-----0-----0-----4-----4-----2-----2-----|
E|---------------------------|-------------------------------------------------------------------------|
Don't know what this is, but I'm feeling it

e|-------0-----0-----0-----0-|----0-----0-----0-----0---|--0-----2--|
B|-------0-----0-----0-----0-|----0-----0-----0-----0---|--2-----4--|
G|---------------------------|--------------------------|--2-----4--|
E|---------------------------|--------------------------|--0-----2--|
A|----0-----0-----0-----0----|-4-----4-----2-----2------|--0-----2--|
E|---------------------------|--------------------------|--0-----2--|
Try keeping distance but I got more than gravity pulling me

[Bridge]
e|-------0-----0-----0-----0-----0-----0-----0-----0-|----0-----0-----0-----0-----0-----0-----0-----0--|
B|-------0-----0-----0-----0-----0-----0-----0-----0-|----0-----0-----0-----0-----0-----0-----0-----0--|
G|---------------------------------------------------|-------------------------------------------------|
E|---2p0----0----4p0----0-----2p0----0----4p0---0----|-------0-----2-----0-----------0-----2-----0-----|
A|---------------------------------------------------|2h4---------------------2h4----------------------|
E|---------------------------------------------------|-------------------------------------------------|

e|-------0-----0-----0----|-0-----0-----0-----0-----0--|
B|-------0-----0-----0----|-0-----0-----0-----0-----0--|
G|------------------------|----------------------------|
E|---2p0----0----4p0----0-|----2p0----0----4p0---0-----|
A|------------------------|----------------------------|
E|------------------------|----------------------------|

[Verse]
e|-------0-----0-----0----|-0-----0-----0-----0-----0--|
B|-------0-----0-----0----|-0-----0-----0-----0-----0--|
G|------------------------|----------------------------|
E|---2p0----0----4p0----0-|----2p0----0----4p0---0-----|
A|------------------------|----------------------------|
E|------------------------|----------------------------|
It's not a simple situation that I found myself in

e|-------0-----0-----0----|-0-----0-----0-----0-----0--|
B|-------0-----0-----0----|-0-----0-----0-----0-----0--|
G|------------------------|----------------------------|
E|---2p0----0----4p0----0-|----2p0----0----4p0---0-----|
A|------------------------|----------------------------|
E|------------------------|----------------------------|

e|-------0-----0-----0----|-0-----0-----0-----0-----0--|
B|-------0-----0-----0----|-0-----0-----0-----0-----0--|
G|------------------------|----------------------------|
E|---2p0----0----4p0----0-|----2p0----0----4p0---0-----|
A|------------------------|----------------------------|
E|------------------------|----------------------------|
Another conversation with myself I keep avoiding

e|-------0-----0-----0----|-0-----0-----0-----0-----0--|
B|-------0-----0-----0----|-0-----0-----0-----0-----0--|
G|------------------------|----------------------------|
E|---2p0----0----4p0----0-|----2p0----0----4p0---0-----|
A|------------------------|----------------------------|
E|------------------------|----------------------------|

e|-----0-----0-----0-----0-|----0-----0-----0-----0----|
B|-----0-----0-----0-----0-|----0-----0-----0-----0----|
G|-------------------------|---------------------------|
E|--------0-----2-----0----|-------0-----2-----0-------|
A|--4----------------------|-4-------------------------|
E|-------------------------|---------------------------|
You say run but I can't hear you

e|-------0-----0-----0----|-0-----0-----0-----0-----0--|
B|-------0-----0-----0----|-0-----0-----0-----0-----0--|
G|------------------------|----------------------------|
E|---2p0----0----4p0----0-|----2p0----0----4p0---0-----|
A|------------------------|----------------------------|
E|------------------------|----------------------------|

e|-----0-----0-----0-----0-|----0-----0-----0-----0----|
B|-----0-----0-----0-----0-|----0-----0-----0-----0----|
G|-------------------------|---------------------------|
E|--------0-----2-----0----|-------0-----2-----0-------|
A|--4----------------------|-4-------------------------|
E|-------------------------|---------------------------|
Something bigger keeps me near you

e|-------0-----0-----0-----0-|----0-----0-----0-----0--|
B|-------0-----0-----0-----0-|----0-----0-----0-----0--|
G|---------------------------|-------------------------|
E|---2p0----0----4p0----0----|-0-----0-----0-----0-----|
A|---------------------------|-------------------------|
E|---------------------------|-------------------------|

[Chorus]
e|-------0-----0-----0-----0-|----0-----0-----0-----0-----0-----0-----0-----0-----0-----0-----0-----0--|
B|-------0-----0-----0-----0-|----0-----0-----0-----0-----0-----0-----0-----0-----0-----0-----0-----0--|
G|---------------------------|-------------------------------------------------------------------------|
E|---------------------------|-------------------------------------------------------------------------|
A|----0-----0-----0-----0----|-4-----4-----2-----2-----0-----0-----0-----0-----4-----4-----2-----2-----|
E|---------------------------|-------------------------------------------------------------------------|
Don't know what this is, but I'm feeling it

e|-------0-----0-----0-----0-----0-----0-----0-----0-|----0-----0-----0-----0-----0-----0-----0-----0--|
B|-------0-----0-----0-----0-----0-----0-----0-----0-|----0-----0-----0-----0-----0-----0-----0-----0--|
G|---------------------------------------------------|-------------------------------------------------|
E|---------------------------------------------------|-------------------------------------------------|
A|----0-----0-----0-----0-----4-----4-----2-----2----|-0-----0-----0-----0-----0-----0-----0-----0-----|
E|---------------------------------------------------|-------------------------------------------------|
Try keeping distance but I got more than gravity pulling me

e|-------0-----0-----0-----0-----0-----0-----0-----0--|
B|-------0-----0-----0-----0-----0-----0-----0-----0--|
G|----------------------------------------------------|
E|----------------------------------------------------|
A|----2-----2-----2-----2-----2-----2-----2-----2-----|
E|----------------------------------------------------|
I got more than gravity pulling me

e|-------0-----0-----0-----0-----0-----0-----0-----0--|
B|-------0-----0-----0-----0-----0-----0-----0-----0--|
G|----------------------------------------------------|
E|----------------------------------------------------|
A|----4-----4-----4-----4-----4-----4-----4-----4-----|
E|----------------------------------------------------|
I tried to ignore it, tried to be strong

e|-------0-----0-----0-----0-----0-----0-----0-----0--|
B|-------0-----0-----0-----0-----0-----0-----0-----0--|
G|----------------------------------------------------|
E|----------------------------------------------------|
A|----2-----2-----2-----2-----2-----2-----2-----2-----|
E|----------------------------------------------------|
I said I'd never feel what I felt that long

[Verse]
e|--0-------------------------4--------------2----------|
B|--2-------------------------5--------------4----------|
G|--2-------------------------6--------------4----------|
E|--0-------------------------4--------------2----------|
A|--0-------------------------4--------------2----------|
E|--0-------------------------4--------------2----------|
    And now it's 2 am and I'm drunk and I'm calling you

e|--0-----------------------------4--------------2------|
B|--2-----------------------------5--------------4------|
G|--2-----------------------------6--------------4------|
E|--0-----------------------------4--------------2------|
A|--0-----------------------------4--------------2------|
E|--0-----------------------------4--------------2------|
   And I can't fall asleep 'cause all I do is dream about you

e|--0-------------------------------4----------2--------|
B|--2-------------------------------5----------4--------|
G|--2-------------------------------6----------4--------|
E|--0-------------------------------4----------2--------|
A|--0-------------------------------4----------2--------|
E|--0-------------------------------4----------2--------|
   It's times like this you gotta face the truth

e|--0-------------2----------|
B|--2-------------4----------|
G|--2-------------4----------|
E|--0-------------2----------|
A|--0-------------2----------|
E|--0-------------2----------|
I think I need somebody, I think that's you

e|-------0-----0-----0-----0-----0-|----0-----0-----0--|
B|-------0-----0-----0-----0-----0-|----0-----0-----0--|
G|---------------------------------|-------------------|
E|---2p0----0----4p0----0----2p0---|--0-----0-----0----|
A|---------------------------------|-------------------|
E|---------------------------------|-------------------|

[Chorus]
e|-------0-----0-----0-----0-|----0-----0-----0-----0-----0-----0-----0-----0-----0-----0-----0-----0--|
B|-------0-----0-----0-----0-|----0-----0-----0-----0-----0-----0-----0-----0-----0-----0-----0-----0--|
G|---------------------------|-------------------------------------------------------------------------|
E|---------------------------|-------------------------------------------------------------------------|
A|----0-----0-----0-----0----|-4-----4-----2-----2-----0-----0-----0-----0-----4-----4-----2-----2-----|
E|---------------------------|-------------------------------------------------------------------------|
Don't know what this is, but I'm feeling it

e|-------0-----0-----0-----0-----0-----0-----0-----0-|----0-----0-----0-----0-----0-----0-----0-----0--|
B|-------0-----0-----0-----0-----0-----0-----0-----0-|----0-----0-----0-----0-----0-----0-----0-----0--|
G|---------------------------------------------------|-------------------------------------------------|
E|---------------------------------------------------|-------------------------------------------------|
A|----0-----0-----0-----0-----4-----4-----2-----2----|-0-----0-----0-----0-----0-----0-----0-----0-----|
E|---------------------------------------------------|-------------------------------------------------|
Try keeping distance but I got more than gravity pulling me

e|-------0-----0-----0-----0-----0-----0-----0-----0--|
B|-------0-----0-----0-----0-----0-----0-----0-----0--|
G|----------------------------------------------------|
E|----------------------------------------------------|
A|----2-----2-----2-----2-----2-----2-----2-----2-----|
E|----------------------------------------------------|
I don't

e|-------0-----0-----0-----0-|----0-----0-----0-----0-----0-----0-----0-----0-----0-----0-----0-----0--|
B|-------0-----0-----0-----0-|----0-----0-----0-----0-----0-----0-----0-----0-----0-----0-----0-----0--|
G|---------------------------|-------------------------------------------------------------------------|
E|---------------------------|-------------------------------------------------------------------------|
A|----0-----0-----0-----0----|-4-----4-----2-----2-----0-----0-----0-----0-----4-----4-----2-----2-----|
E|---------------------------|-------------------------------------------------------------------------|
Don't know what this is, but I'm feeling it

e|-------0-----0-----0-----0-----0-----0-----0-----0--|---0-----2--|
B|-------0-----0-----0-----0-----0-----0-----0-----0--|---2-----4--|
G|----------------------------------------------------|---2-----4--|
E|----------------------------------------------------|---0-----2--|
A|----0-----0-----0-----0-----4-----4-----2-----2-----|---0-----2--|
E|----------------------------------------------------|---0-----2--|
... (It's pulling me) Try keeping distance but I got more than gravity pulling me in

[Outro]
e|-------0-----0-----0-----0-----0-----0-----0-----0-|----0-----0-----0-----0-----0-----0-----0-----0--|
B|-------0-----0-----0-----0-----0-----0-----0-----0-|----0-----0-----0-----0-----0-----0-----0-----0--|
G|---------------------------------------------------|-------------------------------------------------|
E|---2p0----0----4p0----0-----2p0----0----4p0---0----|--------0-----2-----0-----------0-----2-----0----|
A|---------------------------------------------------|-2h4---------------------4-----------------------|
E|---------------------------------------------------|-------------------------------------------------|

************************************

| h   Hammer-on
| p   Pull-off

************************************

            
            
Suggest correction
Creating personal tab
Creating personal tab
You can edit any tab online and save it as your Personal.

You can edit, replace or remove any tab part or add personal notes – all changes will be seen only by you.

Personal tabs can be accessed anytime from any device, even offline.
Learn more »
Give kudos to tab author, rate the tab!
1 2 3 4 5
comments
print report bad tab
guest
You may want to rate the tab now too:
select rating
Wanna post a correction for this tab? Suggest correction