Oops, an error
Loading. Please wait.

Andorra bass

23 views 1 this week
no commentswrite comment
1 2 3 4 5
3 more votes to show rating
add to favorites
×
Save as Personal and add changes to this tab that will be seen only by you. Learn more ›
×
You can save this tab as Personal to edit and correct it or add notes. All changes will be seen only by you. Learn more »
launch autoscroll
font size
0
reset
guitar tuner
edit
Autoscroll
slow
fast
+/-
esc
set tempo
stop
Author
Difficulty
Tabbed by: 6METAL6BASSIST6
E-mail: petergriffinav@gmail.com

Tuning: 1/4 step down.

G|----------------------------------------------------------------|.
D|----------------------------------------------------------------|.
A|--------------------2---3---2---------------0-------2---3---2---|.
E|0-----------3-------------------2-------------------------------|.
                                                                   . x2
G|----------------------------------------------------------------|.
D|------------------------2---------------------------2---4---2---|.
A|------------2-------5-------5---0-----------4-------------------|.
E|3---------------------------------------------------------------|.

0:16

G|----------------------------------------------------------------|.
D|----------------------------------------------------------------|.
A|--------------------2---3---2---------------0-------2---3---2---|.
E|0-----------3-------------------2-------------------------------|.
                                                                   . x3
G|----------------------------------------------------------------|.
D|------------------------2---------------------------2---4---2---|.
A|------------2-------5-------5---0-----------4-------------------|.
E|3---------------------------------------------------------------|.

G|----------------------------------------------------------------|
D|----------------------------------------------------------------|
A|--------------------2---3---2---------------0-------2---3---2---|
E|0-----------3-------------------2-------------------------------|

G|----------------------------------------------------------------|
D|------------------------2---------------7-------7-------7-------|
A|------------2-------5-------5---0-------------------------------|
E|3---------------------------------------------------------------|

0:47

G|----------------------------------------------------------------|
D|2-----------2-----------2---------------------------------------|
A|--------------------------------3-----------3-----------3-------|
E|----------------------------------------------------------------|

G|----------------------------------------------------------------|
D|----------------------------------------------------------------|
A|2-----------2-----------2-------0-----------0-----------0-------|
E|----------------------------------------------------------------|

G|----------------------------------------------------------------|
D|------------------------5---------------------------------------|
A|----------------------------------------------------------------|
E|3-----------3---------------3---2-----------2-----------2---2---|

G|----------------------------------------------------------------|
D|----------------------------------------------------------------|
A|--------------------2---3---2-----------------------2---3---2---|
E|0-----------3-------------------0-----------3-------------------|

1:02

G|----------------------------------------------------------------|.
D|----------------------------------------------------------------|.
A|--------------------2---3---2---------------0-------2---3---2---|.
E|0-----------3-------------------2-------------------------------|.
                                                                   . x3
G|----------------------------------------------------------------|.
D|------------------------2---------------------------2---4---2---|.
A|------------2-------5-------5---0-----------4-------------------|.
E|3---------------------------------------------------------------|.

G|----------------------------------------------------------------|
D|----------------------------------------------------------------|
A|--------------------2---3---2---------------0-------2---3---2---|
E|0-----------3-------------------2-------------------------------|

G|----------------------------------------------------------------|
D|------------------------2---------------7-------7-------7-------|
A|------------2-------5-------5---0-------------------------------|
E|3---------------------------------------------------------------|

1:33

G|9-----------9-----------9-------------------5-------------------|
D|----9-------------------------------5-----------5---------------|
A|--------------------7-------------------3-------------------3---|
E|----------------------------------------------------------------|

G|----------------------------------------------------------------|
D|----------------------------------------------------------------|
A|2-----------2-----------2-------0---0-------0-----------0-------|
E|----------------------------------------------------------------|

G|----------------------------------------------------------------|
D|----------------------------------------------------------------|
A|----------------------------------------------------------------|
E|3---3-------3-----------3-------2---2-------2-----------2-------|

G|----------------------------------------------------------------|
D|----------------------------------------------------------------|
A|--------------------2---3---2-----------------------2---3---2---|
E|0-----------3-------------------0-----------3-------------------|

1:49

G|----------------------------------------------------------------|.
D|----------------------------------------------------------------|.
A|--------------------2---3---2---------------0-------2---3---2---|.
E|0-----------3-------------------2-------------------------------|.
                                                                   . x3
G|----------------------------------------------------------------|.
D|------------------------2---------------------------2---4---2---|.
A|------------2-------5-------5---0-----------4-------------------|.
E|3---------------------------------------------------------------|.

G|----------------------------------------------------------------|
D|----------------------------------------------------------------|
A|--------------------2---3---2---------------0-------2---3---2---|
E|0-----------3-------------------2-------------------------------|

G|----------------------------------------------------------------|
D|------------------------2---------------7-------7-------7-------|
A|------------2-------5-------5---0---0---------------------------|
E|3---------------------------------------------------------------|

2:20

G|9-----------9-----------9-------5-----------5-----------5-------|
D|----9-----------9-------------------5-----------5---------------|
A|--------7-----------7-------------------3-----------3-------3---|
E|----------------------------------------------------------------|

G|----------------------------------------------------------------|
D|----------------------------------------------------------------|
A|2-----------2-----------2-------0-----------0-----------0-------|
E|--------------------2-------------------------------------------|

G|----------------------------------------------------------------|
D|----------------------------------------------------------------|
A|----------------------------------------------------------------|
E|3-----------3-----------3-------2-----------2-----------2-------|

G|----------------------------------------------------------------|
D|------------2-----------2-------2-------2-------2-------2---/---|
A|----------------------------------------------------------------|
E|0---------------------------------------------------------------|

2:38

G|9-----------9-----------9-------5-----------5-----------5-------|
D|----9-----------9-------------------5-----------5---------------|
A|--------7-----------7-------------------3-----------3-------3---|
E|----------------------------------------------------------------|

G|----------------------------------------------------------------|
D|----------------------------------------------------------------|
A|2-----------2-------2-----------0-----------0-------0-------0---|
E|----------------------------------------------------------------|

G|----------------------------------------------------------------|
D|------------5-------------------------------4-----------4-------|
A|----------------------------------------------------------------|
E|3-------------------3-----------2---------------------------2---|

2:48

G|----------------------------------------------------------------|.
D|----------------------------------------------------------------|.
A|--------------------2---3---2---------------0-------2---3---2---|.
E|0-----------3-------------------2-------------------------------|.
                                                                   . x3 to fadeout.
G|----------------------------------------------------------------|.
D|------------------------2---------------------------2---4---2---|.
A|------------2-------5-------5---0-----------4-------------------|.
E|3---------------------------------------------------------------|.
Suggest correction
Creating personal tab
Creating personal tab
You can edit any tab online and save it as your Personal.

You can edit, replace or remove any tab part or add personal notes – all changes will be seen only by you.

Personal tabs can be accessed anytime from any device, even offline.
Learn more »
Give kudos to tab author, rate the tab!
1 2 3 4 5
comments
print report bad tab
guest
You may want to rate the tab now too:
select rating
Wanna post a correction for this tab? Suggest correction