Oops, an error
Loading. Please wait.

Beginning chords

10 views 3 this week
no commentswrite comment
1 2 3 4 5
3 more votes to show rating
add to favorites
×
Save as Personal and add changes to this tab that will be seen only by you. Learn more ›
×
You can save this tab as Personal to edit and correct it or add notes. All changes will be seen only by you. Learn more »
launch autoscroll
font size
0
reset
transpose
0
reset
simplify chords
display chords
guitar tuner
edit
Autoscroll
slow
fast
+/-
esc
set tempo
stop
Author
Difficulty
About this tab version
Beautiful song, chordprogression somewhat tricky, ends in a tab. enjoy. Was this info helpful? Yes No
Strumming
There is no strumming pattern for this song yet. and get +5 IQ
BEGINNING - Colin Blunstone


Dmaj7                       C        D11/C       Cmaj7                                
       As another day lays    down         it’s        head
Am              Bm                  A/C#       G/B - A                              
    I sit here     reading by your       light 
    G/B        A/C#     D            D7                                        
My       mind       is    singing  (     singing)
     C       D11/C        Cmaj7                                                
With    all        we've         said
Am                Bm               A/C#                                     
   Scared at how     final it can        be
G/B      A         G/B       A/C#      D                                            
    For     wrong       a -       and    right
Dmaj7               C        D11/C       Cmaj7                                        
      Are not like    black         and        white
Am             Bm              A7/C#                                        
   Everything     falls in the        middle 
A       G/B        A/C#       D                                                
   Oo -      oo -        hoo     self doubt
Dmaj7               C      D11/C       Cmaj7                                          
      Surrounds you    in         the         night
     Am           Bm                A7/C#                                   
You     suddenly      find yourself        running 
Gsus2/E - G5/E - A5/G - 

D                       C       D11/C          Cmaj7                            
   Keep out the people    Keep         out the        day
Am             Bm              A/C#                                        
   Let us be -     gin by be -        ginning
      A                                                          
(Let     us begin) 
     D          Dmaj7                                                   
The     secret         of the future's 
C        D11/C       Cmaj7                                                     
   Ne -         ver         told
Am             Bm              A/C#                                        
   Let us be -     gin by be -       ginning
      A           D                                                 
(Let     us be -     gin) 
      D7           C      D11/C        Cmaj7                                       
(Let      us, let     us         be -        gin) 
Am             Bm              (guitar)                                       
   Let us be -     gin by be -          ginning


Guitar:
e|------0-12-------9--------------9---/10-----9------7-----5-----3----/
B|----5-----14-------10--------10---10/---8------8-----8-----3-----3--/
G|--6---------14--------9----9--------/-----7------7-----7-----4-----4/
D|--------------14--------11----------/-------------------------------/
A|0-----------------------------------/0------------------------------/
E|------------------------------------/-------------------------------/
e|----5-------7-----9-----7-------/----5---7s9-------9---------0------/
B|5h7---7-------7-----7------7---7/------5-8s10-10-----------2---2----/
G|--------5h7-----7-----7------7--/4s6-----7s9-----9-------4-------4-2/
D|0-----------------0-------------/----------------------2-2----------/
A|--------------------------------/0-------------------0--------------/
E|--------------------------------/-----------------------------------/
e|--------0-----------------5------/---------------7----------/
B|----2---------2h3p2p0h2-----2----/4----5p4---4------4-------/
G|------2-----2-----------2-----2-2/---------6---4------4---4s/
D|--2-------2----------------------/---4------------------4---/
A|0--------------------------------/0-------------------------/
E|---------------------------------/--------------------------/
e|--------------/--------------/-------------/-----------//
B|------5-------/------3-------/----------2--/---0-------//
G|----4----4----/----2----2----/-------2-----/--1---1----//
D|--2--------2--/--0--------0--/-----2-------/-2---------//
A|--------------/--------------/---4---------/-----------//
E|4-------------/2-------------/0------------/0----------//




Dmaj7   xx0232
C       x32010
Am6/C   x32212
D11/C   x32032
Cmaj7   x32003
Am      x02210
G/B     x2003x
Bm      x24432
A/C#    x42220
A       x02220
D7      xx0212
A7/C#   x42223
Gsus2/E xxx985
G5/E    xxx9810
A5/G    xxx121012
D7      xx0212




            
            
Suggest correction
Creating personal tab
Creating personal tab
You can edit any tab online and save it as your Personal.

You can edit, replace or remove any tab part or add personal notes – all changes will be seen only by you.

Personal tabs can be accessed anytime from any device, even offline.
Learn more »
Give kudos to tab author, rate the tab!
1 2 3 4 5
comments
print report bad tab
guest
You may want to rate the tab now too:
select rating
Wanna post a correction for this tab? Suggest correction