Oops, an error
Loading. Please wait.

I Want Some More Bass Tab

7 views 1 this week
no commentswrite comment
1 2 3 4 5
3 more votes to show rating
add to favorites
launch autoscroll
font size
0
reset
guitar tuner
Autoscroll
slow
fast
+/-
esc
set tempo
stop
Help us to improve Ultimate-Guitar.com Take our survey!
×
Author
Difficulty
novice
Tabbed by: 6METAL6BASSIST6
E-mail: petergriffinav@gmail.com

Tuning: EADG

0:08

G|------------7-------------------------------7-------------------|
D|----------------------------------------------------------------|
A|5-------------------------------5-------------------------------|
E|----------------------------------------------------------------|

G|------------7---------------7-/-9---7---------------------------|
D|----------------------------------------9---7-------------------|
A|5---------------------------------------------------9---7---\---|
E|----------------------------------------------------------------|

0:17

G|----------------------------------------------------------------|.
D|--------------------------------5---5-------5-------5-------5---|.
A|5---5-------5-------5-------5---------------------------5-------|.
E|------------------------5---------------------------------------|.
                                                                   . x4
G|----------------------------------------------------------------|.
D|7---7-------7---5---5-------------------------------------------|.
A|----------------------------2-/-5---5---2-------5---5---2-------|.
E|--------------------------------------------5-------------------|.

0:50

G|----------------------------------------------------------------|
D|--------5---------------5---------------------------------------|
A|3---------------2---5-------5-------5---2-------5-5---5-2-------|
E|------------------------------------------------------------5---|

G|----------------------------------------------------------------|
D|--------5---------------5---------------------------------------|
A|3---------------2---5-------5-------5---2-------5---5---2-------|
E|--------------------------------------------5---------------5---|

G|----------------------------------------------------------------|
D|--------------------------------5-------------------------------|
A|3---------------------------------------------------------------|
E|----------------------------------------------------------------|

G|----------------------------------------------------------------|
D|----------------------------------------------------------------|
A|----------------------------------------------------------------|
E|5---------------------------------------------------------------|

G|----------------------------------------------------------------|
D|----------------------------------------------------------------|
A|----------------------------------------------------------------|
E|----------------------------------------------------------------|

G|------------------------------7/9---7---------------------------|
D|----------------------------------------9---7-------------------|
A|----------------------------------------------------9---7---\---|
E|----------------------------------------------------------------|

1:13

G|----------------------------------------------------------------|.
D|--------------------------------5---5-------5-------5-------5---|.
A|5---5-------5-------5-------5---------------------------5-------|.
E|------------------------5---------------------------------------|.
                                                                   . x4
G|----------------------------------------------------------------|.
D|7---7-------7---5---5-------------------------------------------|.
A|----------------------------2-/-5---5---2-------5---5---2-------|.
E|--------------------------------------------5-------------------|.

1:46

G|----------------------------------------------------------------|
D|--------5---------------5---------------------------------------|
A|3---------------2---5-------5-------5---2-------5-5---5-2-------|
E|--------------------------------------------5---------------5---|

G|----------------------------------------------------------------|
D|--------5---------------5---------------------------------------|
A|3---------------2---5-------5-------5---2-------5---5---2-------|
E|--------------------------------------------5---------------5---|

G|----------------------------------------------------------------|
D|--------------------------------5-------------------------------|
A|3---------------------------------------------------------------|
E|----------------------------------------------------------------|

G|----------------------------------------------------------------|
D|----------------------------------------------------------------|
A|----------------------------------------------------------------|
E|5---------------------------------------------------------------|

G|----------------------------------------------------------------|
D|----------------------------------------------------------------|
A|----------------------------------------------------------------|
E|----------------------------------------------------------------|

G|------------------------------7/9---7---------------------------|
D|----------------------------------------9---7-------------------|
A|----------------------------------------------------9---7---\---|
E|----------------------------------------------------------------|

2:11

G|----------------------------------------------------------------|.
D|--------------------------------5---5-------5-------5-------5---|.
A|5---5-------5-------5-------5---------------------------5-------|.
E|------------------------5---------------------------------------|.
                                                                   . x3
G|----------------------------------------------------------------|.
D|7---7-------7---5---5-------------------------------------------|.
A|----------------------------2-/-5---5---2-------5---5---2-------|.
E|--------------------------------------------5-------------------|.

G|----------------------------------------------------------------|
D|--------------------------------5---5-------5-------5-------5---|
A|5---5-------5-------5-------5---------------------------5-------|
E|------------------------5---------------------------------------|

G|----------------------------------------------------------------|
D|7---------------------------------------------------------------|
A|----------------------------------------------------------------|
E|----------------------------------------------------------------|



2:54

G|----------/-7-------------------------------7---------------7-/-|
D|----------------------------------------------------------------|
A|5-------------------------------5-------------------------------|
E|----------------------------------------------------------------|

G|9---7-------------------------------|
D|--------9---7-----------------------|
A|--------------------9---7---\---5---|
E|------------------------------------|
Suggest correction
Give kudos to tab author, rate the tab!
1 2 3 4 5
comments
print report bad tab
guest
You may want to rate the tab now too:
select rating
Wanna post a correction for this tab? Suggest correction