Oops, an error
Loading. Please wait.

She Loves The Way They Love Her Bass Tab

19 views 1 this week
no commentswrite comment
1 2 3 4 5
3 more votes to show rating
add to favorites
launch autoscroll
font size
0
reset
guitar tuner
Autoscroll
slow
fast
+/-
esc
set tempo
stop
Help us to improve Ultimate-Guitar.com Take our survey!
×
Author
Difficulty
novice
[Intro]

G|--5---5-3---3-|-------------|-5---5-3---3-|-------------|
D|--------------|-3-----------|-------------|-3-----------|
A|--------------|-----3--3--3-|-------------|-----3--3--3-|
E|--------------|-------------|-------------|-------------|


[Verse 1]

G|-5---5-3---3-|-------------|-5---5-3---3-|-------------|
D|-------------|-3-----------|-------------|-3-----------|
A|-------------|-----3--3--3-|-------------|-----3--3----|
E|-------------|-------------|-------------|-----------6-|


G|-------------|-----------5-|-------------|-----------5-|
D|-------------|-----4--7----|-------------|-----4--7----|
A|-------------|-5-----------|-0---0-0---0-|-5-----------|
E|-5---5-5---5-|-------------|-------------|-------------|


[Chorus]

G|-------------|-------------|--------------|--------------------------|
D|-5---5-5---5-|-5---5--5--5-|-5---5-5-5--5-|---5----5----5----5--5--5-|
A|-------------|-------------|--------------|--------------------------|
E|-------------|-------------|--------------|--------------------------|


[Interlude]

G|-------------|-------------|-------------|-------------|
D|-------------|-------------|-------------|-----------5-|
A|-3---3-1---1-|-----3--3----|-3---3-1---1-|-----3--3----|
E|-------------|-1---------3-|-------------|-1-----------|


[Verse 2]

G|-5---5-3---3-|-------------|-5---5-3---3-|-------------|
D|-------------|-3-----------|-------------|-3-----------|
A|-------------|-----3--3--3-|-------------|-----3--3--3-|
E|-------------|-------------|-------------|-------------|


G|-------------|-----------5-|-------------|-----------5-|
D|-------------|-----4--7----|-------------|-----4--7----|
A|-------------|-5-----------|-0---0-0---0-|-5-----------|
E|-5---5-5---5-|-------------|-------------|-------------|


[Chorus]

G|-------------|-------------|--------------|--------------------------|
D|-5---5-5---5-|-5---5--5--5-|-5---5-5-5--5-|---5----5----5----5--5--5-|
A|-------------|-------------|--------------|--------------------------|
E|-------------|-------------|--------------|--------------------------|


[Instrumental]

G|-------------|-------------|-------------|-------------|
D|-------------|-------------|-------------|-------------|
A|-3---3-1---1-|-----3--3----|-3---3-1---1-|-----3--3----|
E|-------------|-1---------3-|-------------|-1---------6-|


G|-------------|-----------5-|-------------|-----------5-|
D|-------------|-----4--7----|-------------|-----4--7----|
A|-------------|-5-----------|-0---0-0---0-|-5-----------|
E|-5---5-5---5-|-------------|-------------|-------------|


[Chorus]

G|-------------|-------------|--------------|--------------------------|
D|-5---5-5---5-|-5---5--5--5-|-5---5-5-5--5-|---5----5----5----5--5--5-|
A|-------------|-------------|--------------|--------------------------|
E|-------------|-------------|--------------|--------------------------|


[Interlude]

G|-------------|-------------|-------------|-------------|
D|-------------|-------------|-------------|-----------5-|
A|-3---3-1---1-|-----3--3----|-3---3-1---1-|-----3--3----|
E|-------------|-1---------3-|-------------|-1-----------|


[Verse 3]

G|-5---5-3---3-|-------------|-5---5-3---3-|-------------|
D|-------------|-3-----------|-------------|-3-----------|
A|-------------|-----3--3--3-|-------------|-----3--3--3-|
E|-------------|-------------|-------------|-------------|


G|-------------|-----------5-|-------------|-----------5-|
D|-------------|-----4--7----|-------------|-----4--7----|
A|-------------|-5-----------|-0---0-0---0-|-5-----------|
E|-5---5-5---5-|-------------|-------------|-------------|


[Chorus]

G|-------------|-------------|--------------|--------------------------|
D|-5---5-5---5-|-5---5--5--5-|-5---5-5-5--5-|---5----5----5----5--5--5-|
A|-------------|-------------|--------------|--------------------------|
E|-------------|-------------|--------------|--------------------------|


[Bridge]

G|-5---5-3---3-|-------------|-5---5-3---3-|-------------|
D|-------------|-3---3-5---5-|-------------|-3---3-5---5-|
A|-------------|-------------|-------------|-------------|
E|-------------|-------------|-------------|-------------|


G|-------------|-------------|-------------|-------------|
D|-7---7-7---7-|-------------|-7---7-7---7-|-------------|
A|-------------|-------7---7-|-------------|-------7---7-|
E|-------------|-7---7-------|-------------|-7---7-------|


[Outro] (repeat until the end)

G|-------------|-------------|-------------|-------------|
D|-------------|-------------|-------------|-------------|
A|-0---0-------|-------------|-0---0-------|-------------|
E|-------3---3-|-2---2-1---1-|-------3---3-|-2---2-1---1-|



******************************

in regular sequence!

******************************
Suggest correction
Give kudos to tab author, rate the tab!
1 2 3 4 5
comments
print report bad tab
guest
You may want to rate the tab now too:
select rating
Wanna post a correction for this tab? Suggest correction