Oops, an error
Loading. Please wait.

Are We There Yet chords

196 views 1 this week
no commentswrite comment
1 2 3 4 5
3 more votes to show rating
add to favorites
×
Save as Personal and add changes to this tab that will be seen only by you. Learn more ›
×
You can save this tab as Personal to edit and correct it or add notes. All changes will be seen only by you. Learn more »
launch autoscroll
font size
0
reset
transpose
0
reset
display chords
guitar tuner
edit
Autoscroll
slow
fast
+/-
esc
set tempo
stop
Author
Difficulty
Strumming
There is no strumming pattern for this song yet. and get +5 IQ
Hey guys, I wanted to share a superb song by Colin Hay - Are we there yet.
I don't know some of chords names, so it seems easier to note it by the
actual notes used in some of them.
It goes with standard tuning:
Chords used:
D  x577xx - used for verse
D  2x0233 - used for chorus


[Intro]

e|---------------------------------------------------------------------------|
B|----------2----------------2--------------------2--------2-----------------|
G|-7--------0--------7-------0---------7----------0--------0-----------------|
D|-7--7-5-4-2--4--0--7-7-5-4-2---------7--7-5-4---2--4--0--2-----------------|
A|-5--------0--------5-------0---------5----------0--------0-----------------|
E|---------------------------------------------------------------------------|


[Verse 1]

D
Going through the motions
G            A
Walking round the car
D
We’ve traveled many miles
G            A
Though not so very far
Bm
When I check the side view mirror
G        D
I think of you my dear
Em
You’re always very close
G          A
Closer than you appear
And you’d say


[Chorus]

Bm     A
Are we there yet?
G   D
As we drive into the sun

Em
We are almost there my love
G      A
My innocent one


[Instrumental]

e|---------------------------------------------------------------------------|
B|----------2----------------2--------------------2--------2-----------------|
G|-7--------0--------7-------0---------7----------0--------0-----------------|
D|-7--7-5-4-2--4--0--7-7-5-4-2---------7--7-5-4---2--4--0--2-----------------|
A|-5--------0--------5-------0---------5----------0--------0-----------------|
E|---------------------------------------------------------------------------|


[Verse 2]

D
I find my mind wandering
G            A
Back down this old road
D
In my trusty time machine
G            A
My thoughts on overload
Bm
Child of mine your light still shines
G        D
Where did the time go?
Em
It’s here there and everywhere
G          A
Always fast and never slow
And you’d say


[Chorus]

Bm     A
Are we there yet?
G   D
As we drive into the sun
Em
We are almost there my love
G      A
My innocent one
Bm     A
A picture perfect moment
G   D
A moment we could share
Em
Laughter from the back seat
G      A
We’re always almost there 

            
            
Suggest correction
Creating personal tab
Creating personal tab
You can edit any tab online and save it as your Personal.

You can edit, replace or remove any tab part or add personal notes – all changes will be seen only by you.

Personal tabs can be accessed anytime from any device, even offline.
Learn more »
Give kudos to tab author, rate the tab!
1 2 3 4 5
comments
print report bad tab
guest
You may want to rate the tab now too:
select rating
Wanna post a correction for this tab? Suggest correction