Oops, an error
Loading. Please wait.

Did You Just Take The Long Way Home chords

13 views 6 this week
no commentswrite comment
1 2 3 4 5
3 more votes to show rating
add to favorites
×
Save as Personal and add changes to this tab that will be seen only by you. Learn more ›
×
You can save this tab as Personal to edit and correct it or add notes. All changes will be seen only by you. Learn more »
launch autoscroll
font size
0
reset
transpose
0
reset
display chords
guitar tuner
edit
Autoscroll
slow
fast
+/-
esc
set tempo
stop
About this tab version
Colin Hay's "Did You Just Take the Long Way Home?" There are a lot more fills and riffs, but I added the tabs for the main one after the chorus. Was this info helpful? Yes No
Strumming
There is no strumming pattern for this song yet. and get +5 IQ
[Intro]
Cm D# A# G#
D# A# G#

[Verse]
D#         A#                      G#
You always know where you can find me
D#                    A#              G#
I’m up here where the air is pure and true
D#                A#               G#
The cleverness of words just binds me
D#         A#                  G#
They won’t help me to get over you

[Chorus]
Cm                D#
And maybe you got lost at the five ways
A#           Gm
Took a wrong turn just like always
Cm              Dm                A#
Or did you just take the long way home?

e|----------3-4----------------------------------|
B|---3-4-6---------------------------------------|
G|-----------------------------------------------|
D|-----------------------------------------------|
A|-----------------------------------------------|
E|-----------------------------------------------|

D# A# G#

[Verse]
D#                   A#               G#
I hear the wind blow through the pine trees
D#          A#                      G#
I watch the frozen lights come into view
D#        A#                     G#
The stars above they don’t align me
D#        A#                   G#
They only shine a dim light on you

[Chorus]
Cm                D#
And maybe you got lost at the five ways
A#           Gm
Took a wrong turn just like always
Cm              Dm                A#
Or did you just take the long way home?

e|----------3-4----------------------------------|
B|---3-4-6---------------------------------------|
G|-----------------------------------------------|
D|-----------------------------------------------|
A|-----------------------------------------------|
E|-----------------------------------------------|

D# A# G#

[Verse]
D#      A#                            G#
I wanna hear you walk up right behind me
D#              A#                    G#
But the dawn is come and it’s done me in
Cm           D#
And could it be that you don’t love me
A#        Gm
For who I am or what I could be
Cm               Dm                      A#
And from where I am it’s such a long way down

e|----------3-4----------------------------------|
B|---3-4-6---------------------------------------|
G|-----------------------------------------------|
D|-----------------------------------------------|
A|-----------------------------------------------|
E|-----------------------------------------------|

D# A# G#

[Chorus]
Cm               D#
So maybe you got lost at the five ways
A#           Gm
Took a wrong turn just like always
Cm              Dm                A#
Or did you just take the long way home?

e|----------3-4----------------------------------|
B|---3-4-6---------------------------------------|
G|-----------------------------------------------|
D|-----------------------------------------------|
A|-----------------------------------------------|
E|-----------------------------------------------|

D# A# G#

[Outro]
D#           A#                G#
Did you just take the long way home?
D# A# G#
D#              A#                G#
Or did you just take the long way home?
Suggest correction
Creating personal tab
Creating personal tab
You can edit any tab online and save it as your Personal.

You can edit, replace or remove any tab part or add personal notes – all changes will be seen only by you.

Personal tabs can be accessed anytime from any device, even offline.
Learn more »
Give kudos to tab author, rate the tab!
1 2 3 4 5
comments
print report bad tab
guest
You may want to rate the tab now too:
select rating
Wanna post a correction for this tab? Suggest correction