Oops, an error
Loading. Please wait.

I Want You Back chords

version 2
version 2

Whole song

  • Can be played without capo, as seen in his live pe... Show more
37 views 3 this week
2 commentsread comments
1 2 3 4 5
x 4
add to favorites
×
Save as Personal and add changes to this tab that will be seen only by you. Learn more ›
×
You can save this tab as Personal to edit and correct it or add notes. All changes will be seen only by you. Learn more »
launch autoscroll
font size
0
reset
transpose
0
reset
simplify chords
display chords
guitar tuner
edit
Autoscroll
slow
fast
+/-
esc
set tempo
stop
Strumming
There is no strumming pattern for this song yet. and get +5 IQ
Artist: Colin Hay
Song: I Want You Back 
Video: 
Transcription: SCA, kostya.levin.sca@gmail.com 

Tuning: standard
Capo: 2nd fret!

Chords used:
name:  E.A.D.G.B.e
Cadd9: x.3.2.0.3.3
G9:    3.2.0.0.3.3
D/F#:  2.x.0.2.3.x
Em7:   0.2.2.0.3.3
Em9:   0.2.2.0.3.2
Em11:  0.2.2.0.3.0
D:     x.x.0.2.3.2
Dsus4: x.x.0.2.3.3
Dsus2: x.x.0.2.3.0
G:     3.2.0.0.0.3
C:     x.3.2.0.1.0
Bb5:   x.1.3.3.x.x
A5:    x.0.2.2.x.x
Am7:   x.0.2.0.1.0

[Intro]
   G9              Cadd9 D       Dsus2-D 
e|-3----------------------------------------------|
B|-3----------------------------------------------|
G|-0----------------------------------------------|
D|-0----------------------------------------------|
A|-2---------0--2--3--2--0-------2--0-------------|
E|-3-----------------------------------(3)--------|   

   G9              Cadd9 D           
e|-3----------------------------------------------|
B|-3----------------------------------------------|
G|-0----------------------------------------------|
D|-0------------------2--0------------------------|
A|-2---------0--2--3------------------------------|
E|-3----------------------------------------------|   

[Verse]
       G9
I'd be glad to give back
Cadd9         D
All I've ever owned
              G9
If I could've seen into the future
   Cadd9      D
If only I had known
             G9
Behind these walls of separation
       Cadd9           D     Dsus2-D
I have learned to live alone

[Chorus]
      Em7       Em7-Em9-Em11
But I want you
  C        G
I want you back

[Verse]
        G9
I could clearly see the letters
            Cadd9          D
But not the writing on the wall
      G9
About what had come between us
    Cadd9          D
And how the mighty fall
    G9
And one thing keeps repeating
         Cadd9      D       Dsus2-D     
It's the only thing I know

[Chorus II]
       Em7       Em7-Em9-Em11
That I want you
  C        G
I want you back
       Em7       Em7-Em9-Em11
Yeah I want you
  C        G
I want you back

[Bridge]
          Cadd9      G9
Well I've taken that number
          D/F#           G9
How could I have been so blind
        Cadd9          G9
Now I'm coming up from under
     D/F#
It's you I'll have to find
   Cadd9      G9
My back is up against the ropes
     D/F#          G
Only one way I can go
      Bb5     A5 Am7
And I waaeaaaant you

[Solo]
   G9              Cadd9 D       Dsus2-D 
e|-3----------------------------------------------|
B|-3----------------------------------------------|
G|-0----------------------------------------------|
D|-0----------------------------------------------|
A|-2---------0--2--3--2--0-------2--0-------------|
E|-3-----------------------------------(3)--------|   

   G9              Cadd9 D           
e|-3----------------------------------------------|
B|-3----------------------------------------------|
G|-0----------------------------------------------|
D|-0------------------2--0------------------------|
A|-2---------0--2--3------------------------------|
E|-3----------------------------------------------|  

   G9              Cadd9 D       Dsus2-D 
e|-3----------------------------------------------|
B|-3----------------------------------------------|
G|-0----------------------------------------------|
D|-0----------------------------------------------|
A|-2---------0--2--3--2--0-------2--0-------------|
E|-3-----------------------------------(0)--------|   

Em7    Em7-Em9-Em11   C   G

[Verse]
    G9
How far is the distance
         Cadd9           D
Have you gone beyond the signs
         G9
Have you passed the point of no return
Cadd9                 D
Have you crossed that line
       G9
And it burns me like a fever
        Cadd9         D
I gotta tell you one last time

[End-chorus]
       Em7       Em7-Em9-Em11
That I want you
  C        G
I want you back
       Em7       Em7-Em9-Em11
Yeah I want you
  C        G
I want you back
       Em7       Em7-Em9-Em11
Yeah I want you
  C        G
I want you back
       Em7       Em7-Em9-Em11
Yeah I want you
  C        G
I want you back


Note II:
If you have any corrections or improvements to the tab write
them on the comments section, or send me a message,
or e-mail, so we can together make this tab even better.  

SCA, kostya.levin.sca@gmail.com

            
            
Suggest correction
Creating personal tab
Creating personal tab
You can edit any tab online and save it as your Personal.

You can edit, replace or remove any tab part or add personal notes – all changes will be seen only by you.

Personal tabs can be accessed anytime from any device, even offline.
Learn more »
comments
print report bad tab
2 comments total.
0 reply
TinOwl 10 Apr 04, 2017 07:05 PM

you missed the video link on this one.

0 reply
satir3 5,836 Apr 05, 2017 01:08 PM

I based this tab on studio version, not on acoustic live versions.
There isn't studio version on YT yet so I left the link blank for now.

guest
You may want to rate the tab now too:
select rating
Wanna post a correction for this tab? Suggest correction