Oops, an error
Loading. Please wait.

The Story Of My Brain Tab

25 views 1 this week
no commentswrite comment
1 2 3 4 5
please rate
add to favorites
launch autoscroll
font size
0
reset
how to read this tab
guitar tuner
Autoscroll
slow
fast
+/-
esc
set tempo
stop
Help us to improve Ultimate-Guitar.com Take our survey!
×
Author
Difficulty
novice
-------------------------------------------------------------------------------
                             The Story of My Brain
-------------------------------------------------------------------------------
Tabbed by:collapsed2011
Email:collapsed2011@hotmail.com

Tuning:Standard(E)

Intro:

e|---------------------------------------------------------------------------|
B|---------------------------------------------------------------------------|
G|---------------------------------------------------------------------------|
D|---9-----------------------------------------------------------------------|
A|---9-x16-------------------------------------------------------------------|
E|---7-----------------------------------------------------------------------|
Verse:(PLAY 4 TIMES)
e|---------------------------------------------------------------|
B|---------------------------------------------------------------|
G|--9-9-9-9-9-------------9-9-9-9-9------------------------------|
D|--9-9-9-9-9-9-9-9-9-9-9-9-9-9-9-9-9-9-9-------11-11-11-11-11---|
A|--7-7-7-7-7-9-9-9-9-9-9-7-7-7-7-7-9-9-9-9-9-9-11-11-11-11-11---|
E|------------7-7-7-7-7-7-----------7-7-7-8-8-8-9--9--9--9--9----|

e|-----------------------------------------------------------------|
B|-----------------------------------------------------------------|
G|-----------------------------------------------------------------|
D|--7-7-7-7-7-7-11-11-11-11-11-9-9-9-9-9-9-------------------------|
A|--7-7-7-7-7-7-11-11-11-11-11-9-9-9-9-9-9-------------------------|
E|--5-5-5-5-5-5-9--9--9--9--9--7-7-7-7-7-7-------------------------|
Chorus:
e|-------------------------------------------------------------------------|
B|-------------------------------------------------------------------------|
G|--9-9-6-6-4-4-----------9-9-6-6-4-4--------------------------------------|
D|--9-9-6-6-4-4-7-7-------9-9-6-6-4-4--------------------------------------|
A|--7-7-4-4-2-2-7-7--x3---7-7-4-4-2-2--------------------------------------|
E|--------------5-5--------------------------------------------------------|
Interlude:
e|--------------------------------------------------------------------|
B|--------------------------------------------------------------------|
G|--9-9-9-9-9------------------9-9-9-9-9-9----------------------------|
D|--9-9-9-9-9-9-9-9-9-9-9------9-9-9-9-9-9----------------------------|
A|--7-7-7-7-7-9-9-9-9-9-9--x3--7-7-7-7-7-7----------------------------|
E|------------7-7-7-7-7-7---------------------------------------------|

Verse:(PLAY 4 TIMES)
e|---------------------------------------------------------------|
B|---------------------------------------------------------------|
G|--9-9-9-9-9-------------9-9-9-9-9------------------------------|
D|--9-9-9-9-9-9-9-9-9-9-9-9-9-9-9-9-9-9-9-------11-11-11-11-11---|
A|--7-7-7-7-7-9-9-9-9-9-9-7-7-7-7-7-9-9-9-9-9-9-11-11-11-11-11---|
E|------------7-7-7-7-7-7-----------7-7-7-8-8-8-9--9--9--9--9----|



e|-----------------------------------------------------------------|
B|-----------------------------------------------------------------|
G|-----------------------------------------------------------------|
D|--7-7-7-7-7-7-11-11-11-11-11-9-9-9-9-9-9-------------------------|
A|--7-7-7-7-7-7-11-11-11-11-11-9-9-9-9-9-9-------------------------|
E|--5-5-5-5-5-5-9--9--9--9--9--7-7-7-7-7-7-------------------------|
Chorus:
e|-------------------------------------------------------------------------|
B|-------------------------------------------------------------------------|
G|--9-9-6-6-4-4-----------9-9-6-6-4-4--------------------------------------|
D|--9-9-6-6-4-4-7-7-------9-9-6-6-4-4--------------------------------------|
A|--7-7-4-4-2-2-7-7--x3---7-7-4-4-2-2--------------------------------------|
E|--------------5-5--------------------------------------------------------|
Interlude:
e|--------------------------------------------------------------------|
B|--------------------------------------------------------------------|
G|--9-9-9-9-9------------------9-9-9-9-9-9----------------------------|
D|--9-9-9-9-9-9-9-9-9-9-9------9-9-9-9-9-9----------------------------|
A|--7-7-7-7-7-9-9-9-9-9-9--x3--7-7-7-7-7-7----------------------------|
E|------------7-7-7-7-7-7---------------------------------------------|
Solo: (PLAY 4 TIMES) (VERSE IS PLAYED OVER SOLO)
e|---------------------------------------------------------------------|
B|----------10-9-7-7-9-5-9-7-5-7-9-5-9-7-5-7-9-10----------------------|
G|--9--9-11------------------------------------------------------------|
D|---------------------------------------------------------------------|
A|---------------------------------------------------------------------|
E|---------------------------------------------------------------------|



************************************

| /   slide up
| \   slide down
| h   hammer-on
| p   pull-off
| ~   vibrato
| +   harmonic
| x   Mute note
| b   Bend
| pb  Pre-bend
| br  Bend release
| pbr Pre-bend release
| brb Bend release bend

************************************
Suggest correction
What's this?
You can suggest a correction to this tab. Community and Mods will review your correction and vote to approve or reject it.
comments
We did not receive enough feedback on this tab! Please rate:
print report bad tab
1 2 3 4 5
guest
You may want to rate the tab now too:
select rating
Please do not post tabs as comments. Select "correction" instead!