Oops, an error
Loading. Please wait.

Compliment chords

version 2
version 2

Whole song

Interactive

292 views 1 this week
no commentswrite comment
1 2 3 4 5
1 last vote to show rating
add to favorites
×
Save as Personal and add changes to this tab that will be seen only by you. Learn more ›
×
You can save this tab as Personal to edit and correct it or add notes. All changes will be seen only by you. Learn more »
launch autoscroll
font size
0
reset
transpose
0
reset
simplify chords
display chords
guitar tuner
edit
Autoscroll
slow
fast
+/-
esc
set tempo
stop
Strumming
There is no strumming pattern for this song yet. and get +5 IQ
Song: Compliment
Artist: Collective Soul
Album: Dosage
Tuning: Half Step Down


Intro


     E                  Esus                 E                  Esus
eb|--------------------|-------------------|------------------|------------------|
Bb|--------------------|-------------------|------------------|------------------|
Gb|--1-1-1-1-1-1-1-1---|--2-2-2-2-2-2-2-2--|--1-1-1-1-1-1-1-1-|-2-2-2-2-2-2-2-2--|
Db|--2-2-2-2-2-2-2-2---|--2-2-2-2-2-2-2-2--|--2-2-2-2-2-2-2-2-|-2-2-2-2-2-2-2-2--|
Ab|--------------------|-------------------|------------------|------------------|
Eb|--------------------|-------------------|------------------|------------------|


     E                  Esus                 E                  Esus
eb|--------------------|-------------------|------------------|------------------|
Bb|--------------------|-------------------|------------------|------------------|
Gb|--1-1-1-1-1-1-1-1---|--2-2-2-2-2-2-2-2--|--1-1-1-1-1-1-1-1-|-2-2-2-2-2-2-2-2--|
Db|--2-2-2-2-2-2-2-2---|--2-2-2-2-2-2-2-2--|--2-2-2-2-2-2-2-2-|-2-2-2-2-2-2-2-2--|
Ab|--------------------|-------------------|------------------|------------------|
Eb|--------------------|-------------------|------------------|------------------|

Verse 1:
E                        A   
 And now I've taken the side
E                A
 Of a beautiful cause
E                   A
 Can you see this disguise?
E                A
 Fading to a resolve

Chorus 1:
C#m                 A
  And there it goes my innocence
E            B
  While gathering up a compliment
C#m              A
  And here I lie with words to swear
E                        B
  There's something more, than the world out
G#             A                      E A E A       
There........., the world out there

Verse 2:

E              A
 Hesitation compounds
E                        A
 I've nothing left to sustain
E                       A
 My worries here have allowed
E                 A
 A momentary refrain


Chorus 2:
C#m                 A
  And there it goes my innocence
E            B
  A gathering of a compliment
C#m              A
  And here I lie with words to swear
E                        B
  There's something more, than the world out
G#             A                     E A E E      E A E E        
There........., the world out there

Out Chorus:
C#m                  A
 And there it goes my innocence
E            B
 While gathering up a compliment
C#m               A
 And here I lie with words to swear
E                        B
 There's something more, than the world out there
C#m               A
 And there it goes my innocence
E               B
 I'm dying here for a compliment
C#m            A
 And here I lie with words to swear
E                        B
 There's something more, than the world out
G#             A                 G#    A
 There........., the world out there
                         E
 There, the world out there
Suggest correction
Creating personal tab
Creating personal tab
You can edit any tab online and save it as your Personal.

You can edit, replace or remove any tab part or add personal notes – all changes will be seen only by you.

Personal tabs can be accessed anytime from any device, even offline.
Learn more »
Give kudos to tab author, rate the tab!
1 2 3 4 5
comments
print report bad tab
guest
You may want to rate the tab now too:
select rating
Wanna post a correction for this tab? Suggest correction